Regurgitator - My Computer Crashed Chords & Tabs

 

My Computer Crashed Chords & Tabs

Regurgitator Chords & Tabs

Version: 1 Type: Bass Tab 0 ratings
1 star 2 stars 3 stars 4 stars 5 stars
comments

My Computer Crashed Bass Tab

   
			     My Computer Crashed - Regurgitator
-------------------------------------------------------------------------------

Tuning: EADG
Tabbed By: Elias Allanby
Email: Lpaustralia@hotmail.com or blinkme_elias2002@yahoo.com.au


Intro:     x1                                 x2

|---------------------|  |----------------------------------------------|
|---------------------|  |----------------------------------------------|
|-----------3---------|  |---------333-333------------------3-----------|
|--5--3--5-----3--5---|  |-55-555-----------333-333-333--3-----3--5-----|


First Verse                  x2

|-----------------------------------------------|
|-----------------------------------------------|
|----------333-333------------------3-----------|
|-555-555-----------333-333-333--3-----3--5-----|

Chorus            x2        

|------------------------------------------|
|------------------------------------------|
|-------3-----------5-----------3----------|
|-5555-----5--5555-----5--5555-----55-5-5--|

Second Verse       x2

|----------------------------------------------|
|----------------------------------------------|
|---------333-333------------------3-----------|
|-55-555-----------333-333-333--3-----3--5-----|
[ Tab from: http://www.guitartabs.cc/tabs/r/regurgitator/my_computer_crashed_btab.html ]
Chorus           x2

|-------------------------------------------|
|-------------------------------------------|
|-------3-----------5-----------3-----------|
|-5555-----5--5555-----5--5555-----55-5-5---|

Bridge            x2                                 x1

|-------------------------------------------|-------------------|
|-------------------------------------------|-------------------|
|-------------------------------------------|-------------------|
|-5-55-55----5-55-55----5-55-55----5-55-55--|--5555555-5555555--|
                
                 x2

|----------------------------------------------|
|----------------------------------------------|
|-----------------------------------3----------|
|-5----------------33------------3-----3--5----|

Third Verse        x2

|----------------------------------------------|
|----------------------------------------------|
|---------333-333------------------3-----------|
|-55-555-----------333-333-333--3-----3--5-----|

Chorus            x2

|-------------------------------------------|
|-------------------------------------------|
|-------3-----------5-----------3-----------|
|-5555-----5--5555-----5--5555-----55-5-5---|

End on
 E|-5-|


www.freewebs.com/thenumlocks
Comments