Regurgitator - I Wanna Be A Nudist Chords & Tabs

 

I Wanna Be A Nudist Chords & Tabs

Regurgitator Chords & Tabs

Version: 1 Type: Bass Tab 0 ratings
1 star 2 stars 3 stars 4 stars 5 stars
comments

I Wanna Be A Nudist Bass Tab

   
I wanna be a nudust (BASS TAB)
By REGURGITATOR

tabbed by shane adamczak 

Pretty easy to play, but very fun song by the gurge..


INTRO
G----------------
D----------------
A----------------
E-55-7----------- (x4)

VERSES
G----------------
D----------------
A----------------
E-55-7----------- (x4)
[ Tab from: http://www.guitartabs.cc/tabs/r/regurgitator/i_wanna_be_a_nudist_btab.html ]
G--------------------------
D--------------------------
A--------------------------
E-55-3333-5555-3333-5-5-5-5-55-5 

CHORUS

G---------
D---------
A---55-77777
E-77------

BASS SOLO

G-------------------
D-------------------
A------55-55-55-77-77-77-77-77
E-77-77--------------

keep playing that bit for the "bam bam bam" bits...
 
For the "NUDIST!" bit play:
G---
D---
A---
E-77-
On each "nu-dist"


Comments