Regurgitator - I Love Tommy Matola Chords & Tabs

 

I Love Tommy Matola Chords & Tabs

Regurgitator Chords & Tabs

Version: 1 Type: Tab 0 ratings
1 star 2 stars 3 stars 4 stars 5 stars
comments

I Love Tommy Matola Tab

I LOVE TOMMY MATOLA
            BY REGURGITATOR


THIS SONG HAS THE GREATEST RIFF BY ANY BAND
AT ANY TIME...ANY PROBLEMS...nyke_air@hotmail.com


INTRO (WA-WA PEDAL HANDY)

E|--------------------------------------|
B|--------------------------------------|
G|----7--------5------------------------|
D|-------5-h7-----7-----5---------3-----|
A|-5-----------------------3-h5------5p-|
E|-------------------3------------------|

VERSE

E|----------------------------------|
B|----7-------0-------6------5------|
G|----5-------2-------4------3------|
D|----------------------------------|
A|-5-----------------------3--------|
E|---------1-------3----------------|

BRIDGE
[ Tab from: http://www.guitartabs.cc/tabs/r/regurgitator/i_love_tommy_matola_tab.html ]
E|--------------------------------------------|
B|-6-6-6-6-6-6---5-4-3--3-3-3-3-3-3--4-5-6----|
G|-7-7-7-7-7-7---6-5-4--4-4-4-4-4-4--5-6-7----|
D|-6-6-6-6-6-6---5-4-3--3-3-3-3-3-3--4-5-6----|
A|-x-x-x-x-x-x---x-x-x--x-x-x-x-x-x--x-x-x----|
E|-6-6-6-6-6-6---5-4-3--3-3-3-3-3-3--4-5-6----|

CHORUS

E|------------------------------|
B|------------------------------|
G|------------------------------|
D|-9--9--2--2--5-5-5-5-7-7-7-7--|
A|-9--9--2--2--5-5-5-5-7-7-7-7--|
E|-7--7--0--0--3-3-3-3-5-5-5-5--|



SONG FLOW


INTRO X4
VERSE X4
BRIDGE X2
INTRO X4
VERSE X4
BRIDGE X2
CHORUS X4
ELECTRIC INTERVAL
VERSE X8
BRIDGE X2
CHORUS UNTIL FADE OUT
***************************

THIS TAB BROUGHT TO U BY *DaRk SpEeD*
Comments