Regurgitator - Crush The Losers Chords & Tabs

 

Crush The Losers Chords & Tabs

Regurgitator Chords & Tabs

Version: 1 Type: Tab 0 ratings
1 star 2 stars 3 stars 4 stars 5 stars
comments

Crush The Losers Tab

   
Song : Crush The Losers
Artist : Regurgitator
Album : Crush The Losers

Tabbed By James Noble

Tuning: Standard

Intro (Power Chords)

     B    E  A  E    E  A  B    E  A  E
e  -----------------------------------------------------
b  -----------------------------------------------------
g  --4-------2--9-------2--4-------2--9-------4h6p4-----
d  --4----2--2--9----2--2--4----2--2--9----/6-------0h6-  (x2)
a  --2----2--0--7----2--0--2----2--0--7-----------------
E  -------0----------0----------0-----------------------


Verse (Same As Intro, except x4)
"Are you ready.."


Pre-Chorus (Chords)
"Yeah you're a real stiff bicky.." 

     F#        A     B
e  ------------------------------------------------------
b  ------------------------------------------------------
g  ------------2-----4-----------------------------------
d  --4---------2-----4-----------------------------------
a  --4---------0-----2-----------------------------------
E  --2---------------------------------------------------

[ Tab from: http://www.guitartabs.cc/tabs/r/regurgitator/crush_the_losers_tab.html ]
Chorus
"Crush, Crush The Losers.."

     E    B  A    B  E    B  A
e  -----------------------------
b  -----------------------------
g  --9----4--2----4--9----4--2--
d  --9----4--2----4--9----4--2--
a  --7----2--0----2--7----2--0--
E  -----------------------------

     E    B  A    B  E
e  -----------------------------
b  -----------------------------
g  --9----4--2----4--9----------
d  --9----4--2----4--9----------
a  --7----2--0----2--7----------
E  -----------------------------

Chorus Outro

e  ------------14--------17--
b  --12-----------14---------
g  -----12-----------15------
d  --------14----------------
a  --------------------------
E  --------------------------


Solo #1 (Play intro)


Verse, pre-chorus, chorus (x2) again

then...

e  -----------------------------------
b  -----------------------------------
g  --4--x-----x--7-----2---9-9-4-4----
d  --4--x--4--x--7--x--2---9-9-4-4---- (x4)
a  --2--x--4--x--5--x--0---7-7-2-2----
E  --------2--------x-----------------


chorus til fade
Comments