Regurgitator - Blubber Boy Chords & Tabs

 

Blubber Boy Chords & Tabs

Regurgitator Chords & Tabs

Version: 2 Type: Bass Tab 0 ratings
1 star 2 stars 3 stars 4 stars 5 stars
comments

Blubber Boy Bass Tab

REGURGITATOR - "Blubber Boy" - Bass Tab

This Is the "New" Ep Version
Standard Tuning

Intro:
                       (x4)
|------------------|--------|
|*-----------------|-------*|
|*-----------------|-------*|
|--5-5-5-5-5-5-r-5-|-2-0-2--|
   1 & 2 & 3 & 4 &   1 & 2

Verse 1 & 2:
                       (x4)
|------------------|--------|---------------|-------|
|*-----------------|-------*|---------------|-------|
|*-----------------|-------*|-2-2-2-2-2-2-2-|-3-3-2-|
|--5-5-5-5-5-5-r-5-|-2-0-2--|---------------|-------|
   1 & 2 & 3 & 4 &   1 & 2    1 & 2 & 3 4 &   1 & 2

                       (x4)
|------------------|--------|---------------|-------|
|*-----------------|-------*|---------------|-------|
|*-----------------|-------*|-2-2-2-2-2-2-2-|-3-3-2-|
|--5-5-5-5-5-5-r-5-|-2-0-2--|---------------|-------|
   1 & 2 & 3 & 4 &   1 & 2    1 & 2 & 3 4 &   1 & 2

1st Chorus:
                       (x4)
|------------------|--------|
|*-----------------|-------*|
|*-----------------|-2-2-2-*|
|--2-2-2-2-5-5-5-5-|--------|
   1 & 2 & 3 & 4 &   1 & 2
[ Tab from: http://www.guitartabs.cc/tabs/r/regurgitator/blubber_boy_btab_ver_2.html ]
Pre-Verse 2:
                       (x2)
|------------------|--------|
|*-----------------|-------*|
|*-----------------|-------*|
|--5-5-5-5-5-5-r-5-|-2-0-2--|
   1 & 2 & 3 & 4 &   1 & 2

2nd Chorus:
                       (x8)
|------------------|--------|
|*-----------------|-------*|
|*-----------------|-2-2-2-*|
|--2-2-2-2-5-5-5-5-|--------|
   1 & 2 & 3 & 4 &   1 & 2

Noise Bit:
                       (x4)
|------------------|--------|-----------------|---------------|
|*-----------------|-------*|-----------------|---------------|
|*-----------------|-------*|-----------------|---------------|
|--5-5-5-5-5-5-r-5-|-2-0-2--|-5-5-5-5-5-5-r-5-|-2-2-2-2-2-2-2-|
   1 & 2 & 3 & 4 &   1 & 2    1 & 2 & 3 & 4 &   1 & 2 & 3 & 4

Pre-End:
                       (x8)                (x4)
|------------------|--------|-------------------|
|*-----------------|-------*|*-----------------*|
|*-----------------|-2-2-2-*|*-2-2-2-2-2-2-2-2-*|
|--2-2-2-2-5-5-5-5-|--------|-------------------|
   1 & 2 & 3 & 4 &   1 & 2     1 & 2 & 3 & 4 &

End:
                      (x12)
|------------------|--------|---------|---------|
|*-----------------|-------*|---------|---------|
|*-----------------|-2-2-2-*|---------|---------|
|--2-2-2-2-5-5-5-5-|--------|-----2---|---------|
   1 & 2 & 3 & 4 &   1 & 2    1 2 3 4   1 2 3 4

By: Johari Taylor
E-mail: viking@powerup.com.au






Comments