Regina Spektor - Eet Chords & Tabs

 

Eet Chords & Tabs

Regina Spektor Chords & Tabs

Version: 1 Type: Bass Tab 0 ratings
1 star 2 stars 3 stars 4 stars 5 stars
comments

Eet Bass Tab

   
----------------------------------------------------------------------------
                             Eet - Regina Spektor
----------------------------------------------------------------------------
Tabbed by: coheedfan28
E-mail: circaftw28@gmail.com

Tuning: Standard

0:55-1:22
G|-------------------------------------------------------------------|
D|-------------------------------------------------------------------| x4
A|------3~-3--4~-4---------------------------------------------------|
E|-6~-6------------2~-2----------------------------------------------|

1:23-1:39
G|-----------------------------------------------------------------------|
D|-----------------------------------------------------------------------|
A|-----------------------------------------------------------------------|
E|-6~-6-2~-2-4~--6~-6-2~-2-4~-6~-8~-8-9-6~-4~----------------------------|

1:40-2:05 (Optional)
G|----------------------------------------------------------------------|
D|-11(x8)-10(x8)-8(x3)-10-8(x4)-----------------------------------------| x3
A|-----------------------------11(x8)-----------------------------------|
E|----------------------------------------------------------------------|

G|----------------------------------------------------------------------|
D|-11(x8)-10(x8)-8(x7)-10-11~-------------------------------------------|
A|----------------------------------------------------------------------|
E|----------------------------------------------------------------------|

2:06-2:19 (REST)
[ Tab from: http://www.guitartabs.cc/tabs/r/regina_spektor/eet_btab.html ]
2:20-2:33
G|-------------------------------------------------------------------|
D|-------------------------------------------------------------------|
A|------3~-3--4~-4---------------------------------------------------|
E|-6~-6------------2~-2----------------------------------------------|

G|-------------------------------------------------------------------|
D|-------------------------------------------------------------------|
A|------3~-3--4~-4/16~-----------------------------------------------|
E|-6~-6--------------------------------------------------------------|

2:34-3:00
G|----------------------------------------------------------------------|
D|-11(x8)-10(x8)-8(x3)-10-8(x4)-----------------------------------------| x3
A|-----------------------------11(x8)-----------------------------------|
E|----------------------------------------------------------------------|

G|----------------------------------------------------------------------|
D|-11(x8)-10(x8)-8(x7)-10-11~-------------------------------------------|
A|----------------------------------------------------------------------|
E|----------------------------------------------------------------------|

3:01-3:13 (REST)

3:14-3:27
G|-------------------------------------------------------------------|
D|-------------------------------------------------------------------| x2
A|------3~-3--4~-4/16~-----------------------------------------------|
E|-6~-6--------------------------------------------------------------|

3:28-3:53
G|---------------------------------------------------------------------------|
D|-------------------------15------------------------------------------------|
A|-13-16-13----15-18-15------16-13----------3~-4~----------------------------|
E|----------13----------16--------13-14~--6~-----2~--------------------------|

| /  slide up
| \  slide down
| h  hammer-on
| p  pull-off
| ~  vibrato
| +  harmonic
| x  Mute note
=============================================================================
Comments