Reggie And The Full Effect - What The Hell Is Contempt Chords & Tabs

 

What The Hell Is Contempt Chords & Tabs

Reggie And The Full Effect Chords & Tabs

Version: 1 Type: Tab 0 ratings
1 star 2 stars 3 stars 4 stars 5 stars
comments

What The Hell Is Contempt Tab

-----------------------------------------------------------------------------
         What the hell is Contempt? - Reggie and the Full Effect
-----------------------------------------------------------------------------

Tuning: Drop D (DADGBe)

It sounds pretty good to me.... but you might have to listen
for some of the strumming.

Intro/Verse
e|------------------------------|
B|------------------------------|
G|---------4-------------5------|
D|--2------4-x8---5------5-x8---|
A|--2-x8---2------5-x8---3------|
D|--2-------------5-------------|
[ Tab from: http://www.guitartabs.cc/tabs/r/reggie_and_the_full_effect/what_the_hell_is_contempt_tab.html ]
Chorus
e|----------------------------------------|
B|----------------------------------------|
G|----------2--------------4-----3--------|
D|--2-------2-x12---then---4-x8--3-x8-----|
A|--2-x10---0--------------2-----1--------|
D|--2-------------------------------------|


Repeat Verse


Repeat Chorus except with
e|-----------------------|
B|-----------------------|
G|--4-------3-------2----|
D|--4-x16---3-x16---2----|
A|--2-------1-------0----|
D|-----------------------|

3rd Verse    (Listen for strumming)
e|----------------------------------------------|
B|----------------------------------------------|
G|----------------------------------------------|
D|--2--3--2--1-----9--10--9--8------------------|
A|--2--3--2--1-----9--10--9--8------------------|
D|--2--3--2--1-----9--10--9--8------------------|

Repeat Verse


Repeat 3rd Verse until song ends


And that's it!
Comments