Refused - Summerholidays Vs Punkroutine Chords & Tabs

 

Summerholidays Vs Punkroutine Chords & Tabs

Refused Chords & Tabs

Version: 2 Type: Tab 0 ratings
1 star 2 stars 3 stars 4 stars 5 stars
comments

Summerholidays Vs Punkroutine Tab

Song: Summer Holidays vs. Punk Routine
Artist: Refused
Tabbed By: JoeBlanski1020

Tuning: EADGBe

opening:

  Guitar 1                 Guitar 2
e -----------------------|--------------------listen for strumming
B -----------------------|----------------------------------------
G 11-11---11-11-11---11--|--11--9---7--5--4-----------------------
D -----------------------|--x---x---x--x--x-----------------------
A -----------------------|--9---7---5--3--2-----------------------
E -----------------------|----------------------------------------

verse:
  Guitar 1
e ---------------------------
B ---------------------------    this is played several times. listen
G 11-11---11-11-11---11------    to get the rythm right.
D ---------------------------
A ---------------------------
E ---------------------------

bridge and chorus:
  guitar 1&2
e -------------------------------------------------------------
B ----------------------------------------(7)-(7)--------------
G -9-9-9-------9-9-9-12-12-9-12--11-11-11--7---7------------12-   
D -x-x-x-------x-x-x-x--x--x-x---x--x--x---x---x--7-7-7-7-7-x--
A -7-7-7--7-7--7-7-7-10-10-7-10--9--9--9---5---5--x-x-x-x-x-10-
E --------0-0-------------------------------------5-5-5-5-5----

the parenthesis are what the second guitar plays 

middle solo thingy:
[ Tab from: http://www.guitartabs.cc/tabs/r/refused/summerholidays_vs_punkroutine_tab_ver_2.html ]
e ------------------------------------------------------------
B ------------------------------------------------------------
G ------------------------------------------------------------
D ------------------------------------------------------------
A -7-7-7-------7-7-7-------9-9-9--5-5--9-9-9--5-5-------------
E --------0-0---------0-0-------------------------------------

e ------------------------------------------------------------
B ------------------------------------------------------------
G ------------------------------------------------------------
D ------------------------------------------------------------
A -(9)--------------------(5)-----------(3)---(2)-------------
E ------------------------------------------------------------

e ----------------------play a couple of times then-----------
B ------------------------------------------------------------
G --11------7-------9--------------------------------5--7--9--
D --x-------x-------x--------------------------------x--x--x--
A --9-------5-------7--------------------------------3--5--7--
E ------------------------------------------------------------


and that's basically it. just put the parts together and you got it.
some parts might be off but it sounds good to me. make sure your
guitar is tuned or it won't sound right, this is my first tab. if 
you have any questions instant message me on AIM: Joe Blanski 1020.
Comments