Refused - Summerholidays Vs Punkroutine Chords & Tabs

 

Summerholidays Vs Punkroutine Chords & Tabs

Refused Chords & Tabs

Version: 1 Type: Tab 0 ratings
1 star 2 stars 3 stars 4 stars 5 stars
comments

Summerholidays Vs Punkroutine Tab

song:Summerholiday Vs. Punkroutine
album: the shape of punk to come                      
trac:4
intro:
e------------------------------------------------
b------------------------------------------------
g-11-11-11-11-11-11------------------------------ 
d------------------12-9-7-5-3-------------------- ----|      
a------------------------------------------------     X4
e------------------9--7-5-3-1-------------------- ----| 
                  play each 8 times 
mainly the whole song is played on the G-string 11th fret

brige
e----------------------------------------------------
b----------------------------------------------------
g----------------------------------------------------
d-12-12--9--5-5--5--9--12-12-------------------------
a----------------------------------------------------
e--9--9--7--3-3--3--7---9--9-------------------------
listen to the song for the rythm 
if u have any corrections e-mail them to me at punkguy311@hotmail.com
[ Tab from: http://www.guitartabs.cc/tabs/r/refused/summerholidays_vs_punkroutine_tab.html ]
Comments