Refused - Refused Are Fucking Dead Chords & Tabs

 

Refused Are Fucking Dead Chords & Tabs

Refused Chords & Tabs

Version: 2 Type: Tab 0 ratings
1 star 2 stars 3 stars 4 stars 5 stars
comments

Refused Are Fucking Dead Tab

   
Tabber: TJ Nelson
Date: 4/30/05
Song: Refused are Fucking Dead


Alright here it is, i am missing the bridge,
and if you want to be able to play it you
need a wah pedal.


Intro: Distortion (kinda like a fuzzy distortion

e|-------------------------------------------------------------------|
B|-------------------------------------------------------------------|
G|-------------5---------------------------------5---5---------------|
D|-5-x-x-5-x-x-5-x-5-x-5-5-5-6-6-5---5-x-x-5-x-x-5-x-5-x-5-5-5-6-6-5-|
A|-5-x-x-5-x-x-3-x-5-x-5-5-5-6-6-5---5-x-x-5-x-x-3-x-3-x-5-5-5-6-6-5-|
E|-3-x-x-3-x-x---x-3-x-3-3-3-4-4-3---3-x-x-3-x-x---x---x-3-3-3-4-4-3-|

Regular distortion rest of song

Rhythm Figure 1

e|---------------------------------------------------------------|
B|---------------------------------------------------------------|
G|---------------------------------------------------------------|
D|-5---x-x-5-5-5-5-x-x-x-5-x-x-x-5-5---x-x-5-5-5-5-x-x-x-5-x-x-x-|
A|-5---x-x-5-5-5-5-x-x-x-5-x-x-x-5-5---x-x-5-5-5-5-x-x-x-5-x-x-x-|
E|-3---x-x-3-3-3-3-x-x-x-3-x-x-x-3-3---x-x-3-3-3-3-x-x-x-3-x-x-x-|

Main Riff

e|---------------------------|
B|-2p0-----2h3---------------|
G|-----3p0-----3-3-3-2h3p2p0-|
D|---------------------------|
A|---------------------------|
E|---------------------------|

Riff A
[ Tab from: http://www.guitartabs.cc/tabs/r/refused/refused_are_fucking_dead_tab_ver_2.html ]
e|--------------------------------------------------|
B|--------------------------------------------------|
G|-2~-------------------2^--------------------------|
D|--------------------------------------------------|
A|--------------------------------------------------|
E|--------------------------------------------------|
			slow bend release

Riff B

e|--------------------------|
B|-2-2-2-2-2p0--5--5--5p3p0-|
G|--------------------------|
D|--------------------------|
A|--------------------------|
E|--------------------------|

Riff C

e|--------------3--3--3p1p0-|
B|-3-3-3-3-3h5--------------|
G|--------------------------|
D|--------------------------|
A|--------------------------|
E|--------------------------|

Riff D

e|--------------------------------------|
B|-2-2-2-3-5-5-5-5----------------------|
G|-----------------3-3-3-3-2-2-2--------|
D|-------------------------------3~-----|
A|--------------------------------------|
E|--------------------------------------|
  PM............................|

Rhythm Figure 2

e|-------------------------------------------------|
B|-------------------------------------------------|
G|-9--9----9-9-9--9-----9\-3--3----3-3-3--3-----3/-|
D|-7--7----7-7-7--7-----7\-3--3----3-3-3--3-----3/-|
A|-5--5----5-5-5--5-----5\-1--1----1-1-1--1-----1/-|
E|-------------------------------------------------|

Song Order:

Intro 3x
Rhythm Figure 1 8x
Main Riff 20x (12th time end with G5 chord)
Riff A 2x
Main Riff 4x
Riff B 4x
Riff C 3x
Riff D 1x
Main Riff 8x
Rhythm Figure 1 8x
Main Riff 4x
Missing Bridge
Rhythm Figure 2 4x

End with open low E
Comments