Refused - Rather Be Dead Chords & Tabs

 

Rather Be Dead Chords & Tabs

Refused Chords & Tabs

Version: 1 Type: Bass Tab 0 ratings
1 star 2 stars 3 stars 4 stars 5 stars
comments

Rather Be Dead Bass Tab

Song: Rather Be Dead            
Artist: Refused
Album: Songs to Fan the Flames of Discontent 
Tabbed by: xTonedefx  (guito81@hotmail.com)

This is my first song that I have tabbed.

This song is in standard tuning.

 48sec.
G |---------------------------------------|
D |---------------------------------------|
A |---------------------------------------|
E |--0-0----0-0----0-0-0----0-0----0------|
    
59sec.
G |------------------------|
D |------------------------|  x4
A |------------------------|
E |--0------1------3-------|

1:09sec.
G|-----------------------------------|---------|------------------------------|
D|-----------------------------------|--x3-----|------------------------------|
A|-----------------------------------|---------|------------------------------| 
E|--0-0----0-0----0-0-0----0-0----0--|---------|--0-0----0-0----0-0-0----0-0--|

1:21sec.
G |-------------------|
D |-------------------|  x4
A |-------------------|
E |---6-6-5-0= -------|
[ Tab from: http://www.guitartabs.cc/tabs/r/refused/rather_be_dead_btab.html ]
1:32sec.
G |----------------------------------------|
D |----------------------------------------|  x4 
A |----------------------------------------|
E |--0-0----0-0----0-0-0----0-0----0-------|
 
1:44sec.
G |-------------------|
D |-------------------|  x4
A |-------------------|
E |---6-6-5-0= -------|

1:56sec.
G |------------------------------------------------------|
D |---------------5----4h5-------------------------------|  x2
A |--3-3-3-3---------------7----2h3-3-3-3---5---7--------|
E |------------------------------------------------------|

2:18sec.
G |-----------------------------------------|
D |-----------------------------------------| x8
A |---------------------3-3-3-3-5-5-5-5-----|
E |-7-7-7-0-0-1-0-0-------------------------|

2:43sec.
G |--------------------|
D |--------------------|
A |--------------------|
E |---6-6-5-0= --------|

2:54sec.
G |----------------------------------------|
D |----------------------------------------|
A |----------------------------------------|
E |--0-0----0-0----0-0-0----0-0----0-------|
Comments