Refused - Protest Song Chords & Tabs

 

Protest Song Chords & Tabs

Refused Chords & Tabs

Version: 1 Type: Tab 0 ratings
1 star 2 stars 3 stars 4 stars 5 stars
comments

Protest Song Tab

#----------------------------------PLEASE NOTE--------------------------------#
#This file is the author's own work and represents their interpretation of the#
#song. You may only use this file for private study, scholarship, or research.#
#-----------------------------------------------------------------------------#

From: "Mathias Klippinge" 
Subject: r/refused/protest_song_68.tab
Date: Thu, 09 Jul 1998 11:16:15 PDT

Band:  Refused
Title: Protest song '68
Album: Shape of Punk to Come

[PRotESt SoNG '68]

[Riff1]  
e------2-0-2-------
B------------------
G----0-------0---0-
D--4-----------4---
 PM________________

[Riff2]
D--6---3---2------6---3---2------6---3---2------6---3---2---------------------------
A--6---3---2------6---3---2------6---3---2------6---3---2---------------------------
E--4---1---0------4---1---0------4---1---0------4---1---0---------------------------

[Riff3]
My high E-string broke in this part... And I sucked WITHOUT it...
Well, I believe it should sound something like this:
e--------0---------------0---------------0---------------0---------
B----2-------2---2---2-------2---2---2-------2---2---2-------2---2-
G--4---4---4---4---4---4---4---4---4---4---4---4---4---4---4---4---
[ Tab from: http://www.guitartabs.cc/tabs/r/refused/protest_song_tab.html ]
e--------0---------------0---------
B----------3---------------3-------
G----4-------4---4---4-------4---4-
D--0---0-------0---0---0-------0---

[Riff4]
D--9---9-7---7-6---6-4---4-0---0-5---5-4---4-9---9-7---7-5---5-0---0-7---7-4---4-0---0-0-

[Riff5]
D--6\5\3---0-0-0---0-0-0-0-0-0-0-
A--6\5\3---0-0-0---0-0-0-0-0-0-0-
E--4\3\1---0-0-0---0-0-0-0-0-0-0-
           PM_     PM____________
[Riff6]
D--6---6-10---10-9---9-8---8-6---6-10---10-9---9-14---14-14-

[Riff7]
D----------2---2/5-5h6---9-9-6---9-9-3---3---/5---h6\2-----------
A------3-------------------------------------------------2h3-----
E--4-----------------------------------------------------------4-

D----------2---2/5-5h6---9-9-6---9-9-3---3---/5---6\2-----------
A------3------------------------------------------------2h3-----
E--4----------------------------------------------------------4-

D----------2-----------------------------------------------------
A------3---------------------------------------------------------
E--4-------------------------------------------------------------

Riff1 (x10)
Riff2
Riff1 (x8)
Riff1 (x5)  (Quiet)
Riff2
Riff3 (x3)
Riff3 + Riff4
Riff6 + Riff5
Riff7 + Riff5


______________________________________________________
Get Your Private, Free Email at http://www.hotmail.com

Comments