Refreshments - King Of The Hill Chords & Tabs

 

King Of The Hill Chords & Tabs

Refreshments Chords & Tabs

Version: 5 Type: Tab 0 ratings
1 star 2 stars 3 stars 4 stars 5 stars
comments

King Of The Hill Tab

e|----------------|----------------|----------------|-----------------|
B|----------------|----------------|----------------|-----------------|
G|----------------|----------------|----------------|-----------------|
D|----------------|----------------|----------------|-----------------|
A|----------------|0-000-4-2-------|----------------|0-0--------------|
E|0-000-0-4-000-0-|----------------|0-000-0-4-000-0-|----4-4-2-2-4-2--|

  1   2   3   4    1   2   3   4    1   2   3   4    1   2   3   4
e|----------------|----------------|----------------|-----------------|
B|----------------|----------------|----------------|-----------------|
G|----------------|----------------|----------------|----------6-6-6--|
D|----------------|----------------|2-2-------------|----------6-6-6--|
A|----------------|0-000-4-2-------|----4-4-2-2-0-0-|----0-----4-4-4--|
E|0-000-0-4-000-0-|----------------|----------------|4-4---2-0--------|
                                                        ?????  p.m..

[ Tab from: http://www.guitartabs.cc/tabs/r/refreshments/king_of_the_hill_tab_ver_5.html ]
  Staccato, eighth note feel        Let ring
  1   2   3   4    1   2   3   4    1   2   3   4    1   2   3   4
e|----------------|----------------|----------------|-----------------|
B|----------------|----------------|----------------|-----------------|
G|6---6---6---6---|----------------|----------------|-----------------|
D|6---6---6---6---|6---6---6---6---|7-7-7777--7-7-7-|9-9-7-7-6-6-4-4--|
A|4---4---4---4---|6---6---6---6---|7-7-7777--7-7-7-|9-9-7-7-6-6-4-4--|
E|----------------|4---4---4---4---|5-5-5555--5-5-5-|7-7-5-5-4-4-2-2--|


  1   2   3   4    1   2   3   4    1   2   3   4    1   2   3   4
e|----------------|----------------|----------------|-----------------|
B|----------------|----------------|----------------|-----------------|
G|----------------|----------------|----------------|-----------------|
D|----------------|----------------|2-2-------------|----------2-2----|
A|----------------|0-000-4-2-------|----4-4-2-2-0-0-|----0-----2-2----|
E|0-000-0-4-000-0-|----------------|----------------|4-4---2---0-0----|

Enjoy!
Comments