Refreshments - Banditos Chords & Tabs

 

Banditos Chords & Tabs

Refreshments Chords & Tabs

Version: 2 Type: Tab 0 ratings
1 star 2 stars 3 stars 4 stars 5 stars
comments

Banditos Tab

   
BANDITOS
As recorded by The Refreshments
(From the 1996 Album FIZZY FUZZY BIG & BUZZY)

Transcribed by Wunderdog

I couldn't find the two monster solos in this song anywhere on the net.
The verse riff is included here first and it forms the first part of the
2nd solo as well. Has been checked for playback using PowerTab.
This was tons of work. I hope someone can use it!

Duration Legend
---------------
Fret numbers in brackets are not struck but are held over (tied) from the
previous strike.
W - whole; H - half; Q - quarter; E - 8th; S - 16th
+ - note tied to previous; . - note dotted; .. - note double dotted
Irregular groupings are notated above the duration line
Duration letters will always appear directly above the note/fret number it represents the
duration for.  Duration letters with no fret number below them represent rests.

Tablature Legend
----------------
 h   - hammer-on
 p   - pull-off
 b   - bend
 r   - bend release (if no number after the r, then release immediately)
 s   - legato slide
 ~   - vibrato

 Gtr I (E A D G B E) - 'Lead'

 Verse Riff
 4/4
  Gtr I
   E  Q    E  H       +E   E  E  Q   Q.
|-----4-------0-----|-(0)-----4------0----|
|-------------------|---------------------|
|-/4-(4)--\2-(2)----|-(2)-/4-(4)-2--(2)---|
|-------------------|---------------------|
|-------------------|---------------------|
|-------------------|---------------------|


   E  Q    E  H       +E   E  E  Q   Q.
|-----4-------0-----|-(0)-----4------0-----|
|-------------------|----------------------|
|-/4-(4)--\2-(2)----|-(2)-/4-(4)-2--(2)----|
|-------------------|----------------------|
|-------------------|----------------------|
|-------------------|----------------------|


   E  Q    E  H       +E  E  E   Q   E  E  E
|-----4-------5-----|-(5)-5-(5)--5---5-(5)-5-|
|-------------------|------------------------|
|-/4-(4)--/6-(6)----|-(6)----6--(6)-----6----|
|-------------------|------------------------|
|-------------------|------------------------|
|-------------------|------------------------|


    E   Q    E  Q    E  E    +E  E  Q   Q    +Q
|------10-------9-------7--|-(7)----5---4b5r=(4)---|
|--------------------------|-----------------------|
|-/11-(11)--\9-(9)--\7-(7)-|-(7)-6-(6)-------------|
|--------------------------|-----------------------|
|--------------------------|-----------------------|
|--------------------------|-----------------------|


 1st Solo @ 2:21
  E  E E E E     E E E     +E  E E E  E E E E
|------------------------|--------------------|
|------------------------|------------------8-|
|------------------------|--------------7-9---|
|----------5b5.5r==5-7b8r|=(7)-5---5-/9-------|
|------5h7-------7-------|-------7------------|
|---/7-------------------|--------------------|


                                   ~~
  +E  Q  E E. E. E    Q      +E  E Q.    E
|------------------|--------------------------|
|-(8)-7--8-7--8--7-|-10b12r=(10)-8-7----15b17-|
|------------------|--------------------------|
|------------------|--------------------------|
|------------------|--------------------------|
|------------------|--------------------------|


                                                              ~~~~~~
   +E   E  S  S  S  S  E  Q      E       +E   E  S  S  S S  E Q.
|-------------------------------------|----------------------------|
|-(15)-15-12h13p12----12-12-----------|----------------------------|
|------------------14----14b16--14b16-|-(14)-14-11h12p11s9h11-9----|
|-------------------------------------|----------------------------|
|-------------------------------------|----------------------------|
|-------------------------------------|----------------------------|


 ~~~~~
  +E  E  E E E E S S S S   E E E E  E E E E
|------------------------|-------------------|
|------------------------|----------------0--|
|-(9)-7----7-------------|-------------------|
|-------/9---9-8-7p6p5---|-5-----------------|
|----------------------7-|---7-6-5----5p0----|
|------------------------|---------/7--------|


  S S S S S S S S S S S S S S S S   S S S S S S S S S S S S S S S S
|---------------------------------|----------------------------------|
|-3h5p3p0-3h5p3p0-3h5p3p0-3h5p3p0-|-3h5p3p0-3h5p3p0-3h5p3p0-3h5p3p0--|
|---------------------------------|----------------------------------|
|---------------------------------|----------------------------------|
|---------------------------------|----------------------------------|
|---------------------------------|----------------------------------|


  S S S S S S S S S S S S S S S S   S S S S S S S S S S S S S S S S
|---------------------------------|----------------------------------|
|-7h8p7p0-7h8p7p0-7h8p7p0-7h8p7p0-|-7h8p7p0-7h8p7p0-7h8p7p0-7h8p7p0--|
|---------------------------------|----------------------------------|
|---------------------------------|----------------------------------|
|---------------------------------|----------------------------------|
|---------------------------------|----------------------------------|


  |---3----|              |-----3------|
  Q   Q    Q    H         Q     Q      Q      Q.      E
|-----5---(5)--(5)-----|-------10----(10)---(10)-----------|
|-5---5----5----5------|-10----10-----10-----10------------|
|-8b9-8b9--8b9--8b9----|-13b14-13b14--13b14--13b14---14b16-|
|----------------------|-----------------------------------|
|----------------------|-----------------------------------|
|----------------------|-----------------------------------|


   +E   E  Q      Q.      E    +E   E  S  S  S  S  E  E  E  E
|------15-15-----15------15-|-(15)-15--------------------------|
|------12----------------12-|-(12)-12--------------------------|
|-(14)----14b16--14b16------|---------12h13p12----12-----------|
|---------------------------|------------------14----14-12-----|
|---------------------------|------------------------------14--|
|---------------------------|----------------------------------|

[ Tab from: http://www.guitartabs.cc/tabs/r/refreshments/banditos_tab_ver_2.html ]
 2nd Solo @ 3:24
 4/4
  Gtr I
   E  Q    E  H       +E   E  E  Q   Q.
|-----4-------0-----|-(0)-----4------0----|
|-------------------|---------------------|
|-/4-(4)--\2-(2)----|-(2)-/4-(4)-2--(2)---|
|-------------------|---------------------|
|-------------------|---------------------|
|-------------------|---------------------|


   E  Q    E  H       +E   E  E  Q   Q.
|-----4-------0-----|-(0)-----4------0-----|
|-------------------|----------------------|
|-/4-(4)--\2-(2)----|-(2)-/4-(4)-2--(2)----|
|-------------------|----------------------|
|-------------------|----------------------|
|-------------------|----------------------|


   E  Q    E  H       +E  E  E   Q   E  E  E
|-----4-------5-----|-(5)-5-(5)--5---5-(5)-5-|
|-------------------|------------------------|
|-/4-(4)--/6-(6)----|-(6)----6--(6)-----6----|
|-------------------|------------------------|
|-------------------|------------------------|
|-------------------|------------------------|


    E   Q    E  Q    E  E    +E  E  Q   Q     Q
|------10-------9-------7--|-(7)----5---4b5r=(4)---|
|--------------------------|------------------5s===|
|-/11-(11)--\9-(9)--\7-(7)-|-(7)-6-(6)-------------|
|--------------------------|-----------------------|
|--------------------------|-----------------------|
|--------------------------|-----------------------|


   E  E  E      S   S  E  E  E      S   S
|-12-12--------12--12-12-12--------12--12-|
|-12-12--------12--12-12-12--------12--12-|
|-------14b16-(14)----------14b16-(14)----|
|-----------------------------------------|
|-----------------------------------------|
|-----------------------------------------|


   E      S   S  E      S   S  S  S  S  S  E      S   S
|--------12--12--------12--12-12-12-12-12--------12--12-|
|--------12--12--------12--12-12-12-12-12--------12--12-|
|-14b16-(14)----14b16-(14)----------------14b16-(14)----|
|-------------------------------------------------------|
|-------------------------------------------------------|
|-------------------------------------------------------|


   E      S   S  E      S   S  S  S  S  S  E      S   S
|--------12--12--------12--12-12-12-12-12--------12--12-|
|--------12--12--------12--12-12-12-12-12--------12--12-|
|-14b16-(14)----14b16-(14)----------------14b16-(14)----|
|-------------------------------------------------------|
|-------------------------------------------------------|
|-------------------------------------------------------|


   E      S   S  E      S   S  S  S  S  S  E      S   S
|--------12--12--------12--12-12-12-12-12--------12--12-|
|--------12--12--------12--12-12-12-12-12--------12--12-|
|-14b16-(14)----14b16-(14)----------------14b16-(14)----|
|-------------------------------------------------------|
|-------------------------------------------------------|
|-------------------------------------------------------|


   Q      E     +E   S  S  S  S  E  E       +E   E  S  S  S  S  E  E.     S  E
|-15b17--15b17r(15)-12h13p12----12-------|----------------------------------------|
|----------------------------15----15b17r|=(15)-15-12h13p12----12-14b14.5---14b16r|
|----------------------------------------|------------------14----14b14.5---14b16r|
|----------------------------------------|----------------------------------------|
|----------------------------------------|----------------------------------------|
|----------------------------------------|----------------------------------------|


                                                       ~~
   +E   E   E  E  E  E  Q        +E    E   S  S  S  S  Q  E E
|-----------------------------|----------------------------------|
|-(14)-----------------14b16--|-(14)-(14)------------------------|
|-(14)-12-----12-14-12-14b16--|-(14)--14--12-14-12----12--0-2b4--|
|---------/14-----------------|--------------------14------------|
|-----------------------------|----------------------------------|
|-----------------------------|----------------------------------|


                                ~~~~~~~~
  +E  E   +S  E   +S  E   +E  E E   +E  E E E E E E E
|---------------------------------|-------------------|
|---------------------------------|---------------0-2h|
|-(2)-2b4-(2)-2b4-(2)-2b4r(2)-0---|-------------------|
|-------------------------------2-|-(2)-2-----0h2-----|
|---------------------------------|-------0h2---------|
|---------------------------------|-------------------|


  E  E   E   E   E E E E   E  E   E   E   E E E E
|----0--(0)--0--(0)------|----0--(0)--0--(0)-------|
|-3-(3)--3--(3)--3p2-0-2h|=3-(3)--3--(3)--3p2-0-2h=|
|------------------------|-------------------------|
|------------------------|-------------------------|
|------------------------|-------------------------|
|------------------------|-------------------------|


  E  E   E   E   E E E E   E  E   E   E   E E Q
|----0--(0)--0--(0)------|----0--(0)--0--(0)-----|
|-3-(3)--3--(3)--3p2-0-2h|=3-(3)--3--(3)--3p2-0--|
|------------------------|-----------------------|
|------------------------|-----------------------|
|------------------------|-----------------------|
|------------------------|-----------------------|


                         3/4
  E   +E  Q  E   +E  Q    E E E Q.
|---------0-------------|------------|
|-2b3r(2)-0-------------|------------|
|------------2b4r(2)-0--|------------|
|-----------------------|-2p0--------|
|-----------------------|-----2------|
|-----------------------|-------0----|


 4/4
  W          +W
|-0--------|-(0)----|
|-0--------|-(0)----|
|-1--------|-(1)----|
|-2--------|-(2)----|
|-2--------|-(2)----|
|-0--------|-(0)----|


                  ~~~~~~~~~~~~~~~~~~~~~
  E E E E E E +E  E   +W           +W
|-------------------|------------|--------|
|-------------------|------------|--------|
|-------------------|------------|--------|
|---------2h4-(4)s6-|-(6)--------|-(6)----|
|-----2h4-----------|------------|--------|
|-2h4---------------|------------|--------|


  W
|------*|
|------*|
|------*|
|------*|
|-2----*|
|-0----*|
Comments