Reel Big Fish - Your Guts I Hate Em Chords & Tabs

 

Your Guts I Hate Em Chords & Tabs

Reel Big Fish Chords & Tabs

Version: 1 Type: Bass Tab

Your Guts I Hate Em Bass Tab

Reel Big Fish - Your Guts(I hate 'em)


Intro:

G|----0-------------------------------------------------|
D|---2--------------------------------------------------|
A|-33-------3-------5-------3333-0--------3-------5-----|        X 2
E|-------11---1--33---3------------3---11---1--33---3---|


G|------------------------------------------------------|
D|------------------------------------------------------|
A|-33---1-11-1-2-33-------------------------------------|
E|----3-------------------------------------------------|


Verse: Same as intro. You can improvise to mix it up a by
       using the C Major scale.


Pre Chorus:
[ Tab from: http://www.guitartabs.cc/tabs/r/reel_big_fish/your_guts_i_hate_em_btab.html ]
G|-------------------------------------------------------|
D|-------------------------------------------------------|
A|------------7-----5------------------------------------|       x 3
E|-11-111-1/5--5--3---3----------------------------------|


G|-------------------------------------------------------|
D|-------------------------------------------------------|
A|-------------------------------------------------------|
E|-1*----3*----------------------------------------------|


Chorus: Same as intro. Again, improvise to jazz it up a bit.


End: "This is your song...congratulations etc etc"


G|-------------------------------------------------------|
D|-------------------------------------------------------|
A|-33333333--22222222--00000000--------------------------|        x 2
E|-------------------------------1111-3333---------------|


End on A|---3--- *C* and let ring.


*  Let Ring
/  Slide

Really fun song, very easy as well. Enjoy. =)