Reel Big Fish - Where Have You Been Chords & Tabs

 

Where Have You Been Chords & Tabs

Reel Big Fish Chords & Tabs

Version: 3 Type: Tab 0 ratings
1 star 2 stars 3 stars 4 stars 5 stars
comments

Where Have You Been Tab

reel big fish - where have you been
tabbed by - Rob M.

intro/verse
  |-----------------------------repeat x5-----------------------------|
E||-----0-------------0-------------1---------------3-----------------|
B||-------1---1---------1---1---------1---1-----------3---3-----------|
G||---------2-------------0-------2-----2---------4-----4-------------|
D||---2-------------2-----------3-------------3\5---------------------|
A||-0-------------3---------------------------------------------------|
E||-------------------------------------------------------------------| 

this is then played after the first part
E||-----0-------------0----------1---------|
B||-------1---1---------1---1----1---------|
G||---------2-------------0------2---------|
D||---2-------------2------------3---------|
A||-0-------------3------------------------|
E||----------------------------------------|

then this..
E||--------------------------------------|
B||--------------------------------------|
G||------5---2---4--------5---2---4------|
D||--7---5---3---5----7---5---3---5------|
A||--7---3---3---5----7---3---3---5------|
E||--5-------1---3----5-------1---3------|
      
  And back to this again.
  |---------------------------repeat x4-------------------------------|
E||-----0-------------0-------------1---------------3-----------------|
B||-------1---1---------1---1---------1---1-----------3---3-----------|
G||---------2-------------0-------2-----2---------4-----4-------------|
D||---2-------------2-----------3-------------3\5---------------------|
A||-0-------------3---------------------------------------------------|
E||-------------------------------------------------------------------|
    
Chorus
E||--------------------------------------------------------|
B||--------------------------------------------------------|
G||---5--4-------2---5---4---2---5---4-------2---5--4---2--|
D||---5--5---2---3---5---5---3---5---5---2---3---5--5---3--|
A||---3--5---2---3---3---5---3---3---5---2---3---3--5---3--|
E||------3---0---1-------3---1-------3---0---1------3---1--|

this then bridges back to the verses.
E||--------------------------------------|
B||--------------------------------------|
G||------5---2---4--------5---2---4------|
D||--7---5---3---5----7---5---3---5------|
A||--7---3---3---5----7---3---3---5------|
E||--5-------1---3----5-------1---3------|
[ Tab from: http://www.guitartabs.cc/tabs/r/reel_big_fish/where_have_you_been_tab_ver_3.html ]
E||-----0-------------0-------------1---------------3-----------------|
B||-------1---1---------1---1---------1---1-----------3---3-----------|
G||---------2-------------0-------2-----2---------4-----4-------------|
D||---2-------------2-----------3-------------3\5---------------------|
A||-0-------------3---------------------------------------------------|
E||-------------------------------------------------------------------|

Chorus
E||--------------------------------------------------------|
B||--------------------------------------------------------|
G||---5--4-------2---5---4---2---5---4-------2---5--4---2--|
D||---5--5---2---3---5---5---3---5---5---2---3---5--5---3--|
A||---3--5---2---3---3---5---3---3---5---2---3---3--5---3--|
E||------3---0---1-------3---1-------3---0---1------3---1--|
       
    We are now at “NO WAY! YOU WISH! I DON'T! NEED THIS!
  |------------------------repeat x2----------------------|
E||-------------------------------------------------------|
B||-------------------------------------------------------|
G||-----XX--4-XX--2-XX--4---------4---2---4---------------|
D||---7-XX--5-XX--3-XX--5-----7---5---3---5---------------|
A||---7-XX--5-XX--3-XX--5-----7---5---3---5---------------|
E||---5-XX--3-XX--1-XX--3-----5---3---1---3---------------|

  |----repeat x4-----|
E||------------------|
B||------------------|
G||---5---4-------2--|
D||---5---5---2---3--|
A||---3---5---2---3--|
E||-------3---0---1--|

VERSE
  |----------------------------repeat x3------------------------------|
E||-----0-------------0-------------1---------------3-----------------|
B||-------1---1---------1---1---------1---1-----------3---3-----------|
G||---------2-------------0-------2-----2---------4-----4-------------|
D||---2-------------2-----------3-------------3\5---------------------|
A||-0-------------3---------------------------------------------------|
E||-------------------------------------------------------------------|
   
after played 3 times its played like this on the fourth
E||-----0-------------0------------|
B||-------1---1---------1---1------|
G||---------2-------------0--------|
D||---2-------------2-----------3--|
A||-0-------------3----------------|
E||--------------------------------|

Chorus
e||--------------------------------------------------------|
B||--------------------------------------------------------|
G||---5--4-------2---5---4---2---5---4-------2---5--4---2--|
D||---5--5---2---3---5---5---3---5---5---2---3---5--5---3--|
A||---3--5---2---3---3---5---3---3---5---2---3---3--5---3--|
E||------3---0---1-------3---1-------3---0---1------3---1--|

e||---------------------------------------------------------------|
B||---------------------------------------------------------------|
G||--5--4-------2---5---4---2---5--4---2---5---4---2---5---4------|
D||--5--5---2---3---5---5---3---5--5---3---5---5---3---5---5------|
A||--3--5---2---3---3---5---3---3--5---3---3---5---3---3---5------|
E||-----3---0---1-------3---1------3---1-------3---1-------3------|

"where have you been”
E||---3---|
B||---1---|
G||---2---|
D||---3---|
A||-------|
E||-------|
Comments