Reel Big Fish - Where Have You Been Chords & Tabs

 

Where Have You Been Chords & Tabs

Reel Big Fish Chords & Tabs

Version: 1 Type: Tab 1 rating
1 star 2 stars 3 stars 4 stars 5 stars
comments

Where Have You Been Tab

   
"Where Have You Been?"
by Reel Big Fish
from the album "Cheer Up"
tabbed by Roy
www.expage.com/suspiciousindividuals

I didn't write out the chord strums but if you listen to the cd you'll 
get it.

  INTRO/VERSE
  Am         C         F         G            BREAK
E------0---------0---------1---------3-------|------------------|
B----1---1-----1---1-----1---1-----3---3-----|------------------|
G--2-------2-0-------0-2-------2-0-------0---|------5-----------|
D--------------------------------------------|--7---5---3---5---|
A--------------------------------------------|--7---3---3---5---|
E--------------------------------------------|--5-------1---3---|
[ Tab from: http://www.guitartabs.cc/tabs/r/reel_big_fish/where_have_you_been_tab.html ]
 CHORUS                          BRIDGE
E------------------------------|-----X-----X-----X-----X--------------|
B------------------------------|-----X-----X-----X-----X--------------|
G--5---------------5-----------|-----X-----X-----X-----X--------------|
D--5---5---2---3---5---5---3---|--7--X--5--X--3--X--5--X--7---5---3---|
A--3---5---2---3---3---5---3---|--7--X--5--X--3--X--5--X--7---5---3---|
E------3---0---1-------3---1---|--5--X--3--X--1--X--3--X--5---3---1---|


 POST BRIDGE (play all chords staccato)
E-------------------------------------------------------------------|
B-------------------------------------------------------------------|
G-5-5-5-5-5-5-5-5---------------------------------------------------|
D-5-5-5-5-5-5-5-5-5-5-5-5-5-5-5-5-2-2-2-2-2-2-2-2-3-3-3-3-3-3-3-3---|
A-3-3-3-3-3-3-3-3-5-5-5-5-5-5-5-5-2-2-2-2-2-2-2-2-3-3-3-3-3-3-3-3---|
E-----------------3-3-3-3-3-3-3-3-0-0-0-0-0-0-0-0-1-1-1-1-1-1-1-1---|


 SOLO BACKING        END CHORUS     END
E------------------|--------------|-----------3--|
B------------------|--------------|-----------5--|
G--5---------------|--5-----------|---5-------5--|
D--5---5---2---3---|--5---5---3---|---5---5------|
A--3---5---2---3---|--3---5---3---|---3---5------|
E------3---0---1---|------3---1---|-------3------|


INTRO/VERSE
BREAK
INTRO/VERSE
CHORUS
BREAK
INTRO/VERSE
CHORUS
BRIDGE
POST BRIDGE
SOLO BACKING
INTRO VERSE
CHORUS
END CHORUS
END
Comments