Reel Big Fish - What Are Friends For Solo Chords & Tabs

 

What Are Friends For Solo Chords & Tabs

Reel Big Fish Chords & Tabs

Version: 1 Type: Tab 0 ratings
1 star 2 stars 3 stars 4 stars 5 stars
comments

What Are Friends For Solo Tab

Here's a cool solo.  It probably won't be 100% as i don't have my 
guitar with me but i promise to make corrections to it, or some of you
can.

E -----------------------------5-------  8-------------------------
B -6p5h6p5h6p5h6p5h6p5h6p5h6s8---8--  88--8-6-5-8-------------5h6s865------------
G ------------------------------------------------4-- -----5h7-------5
D ---------------------------------------------------555h7----------------
A --------------------------------------------------------------------
E --------------------------------------------------------------------
[ Tab from: http://www.guitartabs.cc/tabs/r/reel_big_fish/what_are_friends_for_solo_tab.html ]
A --------------------------------------------------------------------
B -6p5h6p5h6p5h6p5s865---65656-----------------------------------------------
G ---------------------3----------------------------------------------
D --------------------------------------------------------------------
A --------------------------------------------------------------------
E --------------------------------------------------------------------

That's about 3 quaters of it i think i haven't figured out the last
bit yet so i'll try to add it in with the corrections bound to be 
needed for this tab. Peace out.
Comments