Reel Big Fish - Unity Chords & Tabs

 

Unity Chords & Tabs

Reel Big Fish Chords & Tabs

Version: 1 Type: Bass Tab 0 ratings
1 star 2 stars 3 stars 4 stars 5 stars
comments

Unity Bass Tab

reel big fish
unity

intro:

G----------------------------------------------
D----------------------------------------------
A-------5--7---5-------5----7--5555-------
E----5---------------5------------------------

RiFF 1

G----------------------------------------------
D------------4----------9-------7------------
A-------4-5--------7------5-----------------
E------5-------------------------------------

RiFF 2

G----------------------------------------------------------------------------
D----------------------------------4--------------------------5pause5--------
A-------------4---7---5pause5-----5--------------5--7-----------------7-6-5--
E5-pause-5------------------------------7pause7-------------------------------7

RiFF 3
[ Tab from: http://www.guitartabs.cc/tabs/r/reel_big_fish/unity_btab.html ]
G----------------------------------
D----------------------------------
A---------------55555-----77777----(Follow guitar with these notes)
E--------5555----------------------
"STOP THIS WAR"

Riff 4

 Do the same as riff 3 and follow the guitar-  "there aint nothin wrong with 
another unity song"

Riff 5 No Bass


Riff 6-  play  5 on the E string, 5 on the A string and 7 on the A and follow 
the guitar

SONG LAY  OUT

Play-   intro-once
          Riff 1- four times             Riff 2- twice                   Riff 5 -twice
        Riff 2- twice                     Riff 3- four times          Riff 4 four times
        Riff 1- four times              Riff 4- four times       PLAY WHOLE SONG FAST
        Riff 2- twice                      Riff 1- four times
        Riff 1- four times      Silent         TABED BY David from Lunch box orchestra

And his teacher guy John Skeehn      -song layout goes down then to the right
Comments