Reel Big Fish - The Set Up (you Need This) Chords & Tabs

 

The Set Up (you Need This) Chords & Tabs

Reel Big Fish Chords & Tabs

Version: 1 Type: Tab 1 rating
1 star 2 stars 3 stars 4 stars 5 stars
comments

The Set Up (you Need This) Tab

   
Intro:                                
     Play this section 4X.                Hold after 4th time.
e:-----------------------------|--------------------------------------------|---------------|
B:-----------------------------|--------------------------------------------|---------------|
G:-----------------------------|-----------------------------------------o--|---------------|
D:-----------------------------|--------------------2--------------------o--|---------------|
A:--4--3--2--------------------|-----2--------------0--4--3--2--------------|-------2-------|
E:--------------0--2--3--4-----|-----0--4--3--2------------------0--4-------|-------0-------|
                                     E              A                               E	
Main Riff:
                            Play 6X.
e:---------------------------------------------------------|
B:---------------------------------------------------------|       The 6th time you play it,
G:-----------------------------------------------------o---|       just drop the last 2 notes
D:--4--4----1/2-2-2-2-1--------------------------------o---|       and replace them with the
A:--2--2----------------2-----2--2-------------------------|       verse chords.
E:----------------------------0--0----4/5-5-5-4/5-5-5------|
    B  B                      E  E

Verse:                         Build up:
 Play this 4X.
e:----------------------------|-------------|                                                            
B:----------------------------|-------------|        
G:-------------------------o--|-------------|        
D:-------------------------o--|-------------|         
A:--8-9--------------6-7------|------7------|         
E:--6-7--------------4-5------|------5------|
   Bb B              Ab A            A

Chorus:                                               
   Play this 3X.
e:------------------------------------------|
B:------------------------------------------|           
G:---------------------------------------o--|        
D:----------------------4-4-4-4-----2-2--o--|            
A:--2-2-2-2-----4-4-----2-2-2-2-----0-0-----|          
E:--0-0-0-0-----2-2-------------------------|
       E        F#m        B         A

Post-Chorus:

e:----------------------------|
B:----------------------------|
G:----------------------------|
D:----------------------------|
A:--2--2----2----4----6----7--|
E:--0--0----0----2----4----5--|
    E  E    E   F#m  G#m   A

Main Riff 4X 

Verse 4X 

Build up chord (A)

Chorus 

Post-Chorus

Bridge:

e:---------------------------------------------------------------------------------------|
B:---------------------------------------------------------------------------------------|
G:---------------------------------------------------------------------------------------|
D:-------------------------------------------4----8-9------------------------------------|
A:--4-4-4-4-4---2-2----7-6-----4-4-4-4-4---2-2----6-7---4-4-4-4-4---2-2-2-2-2-----4------|
E:--2-2-2-2-2---0-0--------7---2-2-2-2-2---0------------2-2-2-2-2---0-0-0-0-0-----2------|
       F#m       E                F#m      E B   Eb E      F#m          E        F#m
[ Tab from: http://www.guitartabs.cc/tabs/r/reel_big_fish/the_set_up_you_need_this_tab.html ]
e:---------------------------------------------------------------------------------------|
B:---------------------------------------------------------------------------------------|
G:---------------------------------------------------------------------------------------|
D:---------------------------------------------------------------------------------------|
A:--6-6-6-6-6---4---7-7-7-7-7---6--/6-6-6-6-6---4---7-7-7-7-7---6--/6-6-6-6-6---4--------|
E:--4-4-4-4-4---2---5-5-5-5-5---4--/4-4-4-4-4---2---5-5-5-5-5---4--/4-4-4-4-4---2--------|
       G#m     F#m      A      G#m    G#m      F#m      A      G#m     G#m     F#m

Play this A a long time.
e:---------------------------------------------------------------------------------------|
B:---------------------------------------------------------------------------------------|
G:---------------------------------------------------------------------------------------|
D:---------------------------------------------------------------------------------------|
A:---------7------------------------8---8---9\-------------------------------------------|
E:---------5------------------------6---6---7\-------------------------------------------|
           A                        A#  A#  B

 Solo:

 The solo starts over these chords. You are supposed to play the E chord twice more like I have written beneath, but I didn’t write it in tab because the solo had to go there.
e:----------------------------------------------------------------------------------------------|
B:------------------------------------12--------------------------------------------------------|
G:---------------------------------------11-----------------------------------------------------|
D:---------------------9--9\----------------13--------------------------------------------------|
A:--9--9\--------------7--7\-----------9--9\---14-12-12-14-14-12-12-14-14-12-12-14-14-12-12-14--|
E:--7--7\------------------------------7--7\----------------------------------------------------|
    B  B               E  E            B  B              E  E (keep hitting this E)

During this next solo part, you just play the main riff behind it.  On the fourth time you play the riff, instead of ending it with E, you just keep hitting an A like in the build up.

e:---------------------------------------------------------------------------------------------|
B:--------------------------------------------------12—14b16b14---12--14--12-------------------|
G:-13--11----------------------------------------11--------------------------------------------|
D:---------14--13-14--13---------11-13-14-13-14------------------------------------------------|
A:------------------------14--14---------------------------------------------------------------|
E:---------------------------------------------------------------------------------------------|

e:---------------------------------------------------------------------------------------------|
B:---------------------------------------------------------------------------------------------|
G:-------------------------------------------------------11------------------------------------|
D:------9-9--------9---11b12b11-9-9-9--------9^11^9—11/13--\11-9--------9-----9----------------|
A:-9^11-------9^11----------------------9^11-----------------------9^11--11---9--11------------|
E:---------------------------------------------------------------------------------------------|
                   
e:---------------------------------------------------------------------------------------------|
B:------------------12-12-12---10-10-10---12-12-12---10-10-10----------------------------------|
G:------------------11-11-11----9--9--9---11-11-11---9--9--9-----------------------------------|
D:---------------------------------------------------------------------------------------------|
A:-11--9---------------------------------------------------------------------------------------|
E:---------11--9b------------------------------------------------------------------------------|

Chorus 3X followed by E E F#m G#m A 
Chorus 3X followed by E E F#m G#m A (again)
The outro is just the intro over again. End on A. There’s some trippy stuff after that that I think is just E A B A arpeggio stuff, but I’m not sure.
Comments