Reel Big Fish - Talkin Bout A Revolution Chords & Tabs

 

Talkin Bout A Revolution Chords & Tabs

Reel Big Fish Chords & Tabs

Version: 1 Type: Tab 0 ratings
1 star 2 stars 3 stars 4 stars 5 stars
comments

Talkin Bout A Revolution Tab

This is an easy song. I couldn't tab out the solo coz I'm tired after tabbing out
Story Of My Life, but once you know the key it's easy, just improvise.
[ Tab from: http://www.guitartabs.cc/tabs/r/reel_big_fish/talkin_bout_a_revolution_tab.html ]
Ok, here goes.
The Main riff is played on guitar and bass if u listen closely.
It goes like this.
Intro
e|-----------------------------------------------------------------|
B|-----------------------------------------------------------------|
G|-----------------------------------------------------------------|
D|-----2/4-0-------------------------2/4-0-------------------------|
A|------------0/5--5--3-0-------------------0-5-3------------------|
E|-11----------------------3-0---11---------------5>---------------|
Verse ska strum (you can also play this for the chorus 2nd guitar)
e|-1-1-1-1--5-5--3-3-----------------------------------------------|
B|-1-1-1-1--6-6--5-5-----------------------------------------------|
G|-2-2-2-2--7-7--5-5-----------------------------------------------|
D|-3-3-3-3---------------------------------------------------------|
A|-----------------------------------------------------------------|
E|-----------------------------------------------------------------|
Solo thing in between verses (use as structure for solo at the end)
e|-17-17-17--13----------------------------------------------------|
B|-----------------------------------------------------------------|
G|-----------------------------------------------------------------|
D|-----------------------------------------------------------------|
A|-----------------------------------------------------------------|
E|-----------------------------------------------------------------|

That's it, well the basics at least. You can figure the rest out, it's
pretty easy. Any comments or questions mail me @ simonpym@tpg.com.au. Have Fun!!
Comments