Reel Big Fish - Take On Me Chords & Tabs

 

Take On Me Chords & Tabs

Reel Big Fish Chords & Tabs

Version: 1 Type: Tab 0 ratings
1 star 2 stars 3 stars 4 stars 5 stars
comments

Take On Me Tab

Note: I put the trumpet part in just because it's funner to play than the guitar
part.
[ Tab from: http://www.guitartabs.cc/tabs/r/reel_big_fish/take_on_me_tab.html ]
Reel Big Fish – Take On Me
 Intro                                                                           
 -------2---------------------------------------------------------------------
 ----------3------------------------------------------------------------------
 -4-----------4-------4(several Times)-----------------------------------
 -4--------------------4-----------------------------------------------------
 -2--------------------2------------------------------------------------------
 ----------------------------------------------------------------------------                                                                  
 
Trumpet part (If you can play it on guitar, why not?)                                                                
 ----------------------------------------------------------------------------
 ----------------------------------------------------------------------------
 -------------------1-1-4-4-22---------------------------------------------(x2)
 --4-4-------222----------------2-------------------------------------------
 -------5-22------------------------4----5-5-5-4-5-4-5-------------------
 ---------------------------------------5-------------------------------------                                                                       
 
Verse                                                                           
  -7-----4----9-----10---10-----9--------------------------------------(x4)
 --7-----5----10----10---10-----9--------------------------------------
 --8-----4-----9-----11---11----10-------------------------------------
 --------------------------------------------------------------------------
 ----------------------------------------------------------------------------
 ----------------------------------------------------------------------------   

Chorus:
----------------------------------------------------------------------------
 ----------------------------------------------------------------------------(x3 strum faster
 -------------9------11--------7-----6-------4----------------------------  on the 3rd time)
 ----7-------9------11--------7-----6-------4-------------------------------
 ----7-------7------9---------5-----4-------2-------------------------------
 ----5------------------------------------------------------------------------   

End of Chorus:
----------------------------------------------------------------------------
 ----------------------------------------------------------------------------
 ----------------------7-------9-------------------------------------------
 ----7-------7--------7-------9--------------------------------------------
 ----7-------7--------5-------7--------------------------------------------
 ----5-------4---------------------------------------------------------------

Play Verse again, Then Chorus, then 
Bridge:                                                  Other Trumpet
----4-------3------------------------------/----------------------------------
 ---5-------3---(x2)----------------------/------------------------------------
 ---6-------4-------------4--------9------/---------------------1-1-4-4—(x2)
 ---6----------------------4--------9-----/--4-4--------2-2-2------------------
 ---4----------------------2--------7-----/-------5-2-2------------------------
 -------------------------------------------/--------------------------------------  
Then Play “trumpet part, verse, and the chorus x2

Thanks for coming out
Comments