Reel Big Fish - Take On Me Chords & Tabs

 

Take On Me Chords & Tabs

Reel Big Fish Chords & Tabs

Version: 2 Type: Bass Tab 0 ratings
1 star 2 stars 3 stars 4 stars 5 stars
comments

Take On Me Bass Tab

Song: Take On Me
Artist: Reel Big Fish
Album: BASEketball Soundtrack
Tabbed by: Ryan Anderson

Tuning is normal

x - Mute String
~ - Let it ring

Intro (Hold each for 16 quarter notes, or 4 whole notes)
        
G|--------------
D|--------------
A|--------------
E|--2~-------2~-

Verse                               x 5
                        
G|-----4-2----------4--------2--------------------
D|---------4-2~-2-2---2--------4-2-5--5-5-4-4-5-2-
A|-2-2-------------------0-0----------------------
E|------------------------------------------------

Verse Variant 1                 x 1

G|-----4-2----------4------------
D|---------4-2~-2-2---2----------
A|-2-2------------------------5~-
E|------------------------2~-----

Chorus                          x 1         
                                                    x 3
G|---------------------------------------
D|-----------2-2-2-2-2--4-4-4-4-4--------
A|-0-0-0-0-0----------------------4-5--4-
E|---------------------------------------
[ Tab from: http://www.guitartabs.cc/tabs/r/reel_big_fish/take_on_me_btab_ver_2.html ]
G|------------------------------------------
D|--------------------------------2-2-2-2-2-
A|-0-0-0-0-0------------5-5-5-5-5-----------
E|-----------4-4-4-4-4----------------------

Verse       x 3

Variant 1   x 1

Chorus      x 1

Bridge      x 1
                                                                    
G|---------5------------5----------------------------
D|----------------------------------5------------5---
A|-3-3-3-3---3--3-3-3-3---3--------------------------
E|--------------------------3-3-3-3---3--3-3-3-3---3-

G|---------5------------5----------5---10---5-
D|-----------------------------5-----3--------
A|-3-3-3-3---3--3-3-3-3---3------3--------3---
E|---------------------------3----------------

G|--------------------------------------------
D|-----------------------2-2-2-2-2--2-2-2-2-2-
A|-2-2-2-2-2--2-2-2-2-2-----------------------
E|--------------------------------------------

Horn Solo (On Drum Crash)

G|------------
D|------------
A|-2--2--12/2-
E|------------

Verse       x 3 

Verse Variant 2                             x 1
                        
G|-----4-2----------4--------4---4-2-
D|---------4-2~-2-2---2--------4-----
A|-2-2-------------------0-0---------
E|-----------------------------------

Verse       x 1

Variant 1   x 1

Chorus      until the end
Comments