Reel Big Fish - Suckers Chords & Tabs

 

Suckers Chords & Tabs

Reel Big Fish Chords & Tabs

Version: 1 Type: Tab 0 ratings
1 star 2 stars 3 stars 4 stars 5 stars
comments

Suckers Tab

   
Reel Big Fish - Suckers
Tabbed By: Bert
EMail: loser_guitarist@hotmail.com
album: Cheer Up!

i know this tab is 100% correct cuz i watched Aaron play it last 
night in Milwaukee.

ska chords: Eb Bb Db F
         e:-6--6--4--1-
         e:-8--6--4--1-
         e:-8--7--5--2-
         e:-8--8--6--3-
         e:------------
         e:------------


the ska chords/rhythm stays the same for the intro and the verses. it
is as follows:
  Eb  Eb  Eb  Eb|  Bb  Bb  Bb  Bb|  Db  Db  Db  Db|  F   F   F   F |
1 + 2 + 3 + 4 + |1 + 2 + 3 + 4 + |1 + 2 + 3 + 4 + |1 + 2 + 3 + 4 + |


chorus: power chords
Eb    Eb    Eb G  G  G  |G#    G#    G# G  G# Bb |
1  +  2  +  3  +  4  +  |1  +  2  +  3  +  4  +  |

Eb    Eb    Eb G  G  G  |G#
1  +  2  +  3  +  4  +  |1  +  2  +  3  +  4  +  |


finally, the part that goes "sucker, sucker, sucker..." goes like this:
this is the way i play it for 1 guitar.  it sounds good, so i would 
suggest doing this:
[ Tab from: http://www.guitartabs.cc/tabs/r/reel_big_fish/suckers_tab.html ]
clean:
e:---------------------------------|--------------------------------|
b:---------------------------------|--------------------------------|
g:---------------------------------|--------------------------------|
d:---------------------------------|--------------------------------|
a:-------------------------3-3-2-2-|------------------------3-3-2-2-|
e:-1-1---1-4-4---4-1-1---1---------|1-1---1-4-4---4-1-1---1---------|
   1   +   2   +   3   +   4   +   |1   +   2   +   3   +   4   +   |

clean:
e:---------------------------------|--------------------------------|
b:---------------------------------|--------------------------------|
g:-------------------------5-5-4-4-|------------------------4---4---|
d:-3-3---3-6-6---6-3-3---3---------|3-3---3-6-6---6-3-3-------------|
a:---------------------------------|------------------------2---2---|
e:---------------------------------|--------------------------------|
   1   +   2   +   3   +   4   +   |1   +   2   +   3   +   4   +   |

distorted:  paml muted, slowly let up on it on the repeat
e:---------------------------------|--------------------------------|
b:---------------------------------|--------------------------------|
g:---------------------------------|--------------------------------|
d:-------------------------5-5-4-4-|------------------------5-5-4-4-|
a:-3-3-3-3-6-6-6-6-3-3-3-3-3-3-2-2-|3-3-3-3-6-6-6-6-3-3-3-3-3-3-2-2-|
e:-1-1-1-1-4-4-4-4-1-1-1-1---------|1-1-1-1-4-4-4-4-1-1-1-1---------|
   1   +   2   +   3   +   4   +   |1   +   2   +   3   +   4   +   |

repeat those two bars.


and that's it.  easy enough.


tabbed out 10/9/02 by =bert=
Comments