Reel Big Fish - Suckers Chords & Tabs

 

Suckers Chords & Tabs

Reel Big Fish Chords & Tabs

Version: 1 Type: Bass Tab 0 ratings
1 star 2 stars 3 stars 4 stars 5 stars
comments

Suckers Bass Tab

Reel Big Fish - Suckers
Submitted By: bassdude RBX270
EMail: devilman@comic.com
Album - Cheer Up
Tabbed by: bassdude RBX270
Tuning - standard (EADG)

Intro and verse
G|-----------------------------------------------||
D|-----8-8---------------------------------------||
A|-----------------3-5-3-------------------------||
E|---6---------3-6-------6------4--4----5--5-4-5-||

Just before chorus
G|------------------||
D|------------------||
A|------------------||
E|--4-4--4---6--6-6-||
(rest) It's gone so...
[ Tab from: http://www.guitartabs.cc/tabs/r/reel_big_fish/suckers_btab.html ]
Chorus (Jazz it up a bit, I just gave the basis of it)
G|-------------------------------||
D|-------------------------------||
A|--6--6-------------------------||
E|--------3--3--4--4--6-4-6------||
This one's for all the suckers...

Bridge
G|---------------------------------||
D|---------6-6------------9-9-8-8--||
A|--8-8--8-----6-6-8-8--8----------||
E|---------------------------------||

Last chorus
G|------------------||
D|------------------||
A|--6--6------------||
E|--------3--3--(4)-||
This one's for you

End of song.
And that's it. Easy, huh? These are some of Matt Wong's 
easier bass lines, which are very few in existance.
Comments