Reel Big Fish - Story Of My Life Chords & Tabs

 

Story Of My Life Chords & Tabs

Reel Big Fish Chords & Tabs

Version: 1 Type: Tab 0 ratings
1 star 2 stars 3 stars 4 stars 5 stars
comments

Story Of My Life Tab

This is a heaps funky, catchy and easy to play song. That's why I tabbed it. It's
from the new RBF fully sick album (we're not happy til you're not happy).
There are two guitars used and a lot of FX.

Tune guitar down to drop D
Intro and Chorus
e|-----------------------------------------------------------------|
B|-----------------------------------------------------------------|
G|-----------------------------------------------------------------|
D|------------2-00-----------------------2-00----------------------|
A|----2---33--------0233-22------2---33-------0233--22-------------|
D|-55---5---------------------55---5-------------------------------|

e|-----------------------------------------------------------------|
B|-----------------------------------------------------------------|
G|-----------------------------------------------------------------|
D|------------2-00-------------------------------------------------|
A|----2---33--------0233-22----------------------------------------|
D|-55---5---------------------5>------2>----0>---------------------|

Verse guitar 1
e|-----------------------------------------------------------------|
B|-----------------------------------------------------------------|x4
G|-----------------------------------------------------------------|
D|------------2-00-----------------------2-00----------------------|
A|----2---33---------------------2---33----------------------------|
D|-55---5---------------------55---5-------------------------------|

Verse guitar 2
e|-3-3--3-3--5-5--3-3----3-3--3-3--5-5--3-3------------------------|
B|-3-3--5-5--7-7--5-5----3-3--5-5--7-7--5-5------------------------|x4
G|-4-4--5-5--7-7--5-5----4-4--5-5--7-7--5-5------------------------|
D|-5-5--5-5--7-7--5-5----5-5--5-5--7-7--5-5------------------------|
A|-----------------------------------------------------------------|
D|-----------------------------------------------------------------|
Chorus Again

Bridge
e|-----------------------------------------------------------------|
B|-----------------------------------------------------------------|
G|-----------------------------------------------------------------|
D|------------2-00-----------------------2-00----------------------|
A|----2---33--------0233-22------2---33-------0233--22-------------|
D|-55---5---------------------55---5-------------------------------|

e|-----------------------------------------------------------------|
B|-----------------------------------------------------------------|
G|-----------------------------------------------------------------|
D|------------2-00-----------------------2-00----------------------|
A|----2---33--------0233-22------2---33-------0233--22-------------|
D|-55---5---------------------55---5-------------------------------|
[ Tab from: http://www.guitartabs.cc/tabs/r/reel_big_fish/story_of_my_life_tab.html ]
"well good times come and good times go"
e|-------------------------------15-15-15-12-12-12-10-10-10--------|
B|-----------------------------------------------------------------|
G|-----------------------------------------------------------------|
D|-----------------------------------------------------------------|
A|-----------------------------------------------------------------|
D|-----------------------------------------------------------------|



"I only wish the good times would last a little longer"
e|-3-3--3-3--5-5--3-3---3-3--3-3--5-5--3-3---3-3--3-3--5-5--3-3----|
B|-3-3--5-5--7-7--5-5---3-3--5-5--7-7--5-5---3-3--5-5--7-7--5-5----|
G|-4-4--5-5--7-7--5-5---4-4--5-5--7-7--5-5---4-4--5-5--7-7--5-5----|
D|-5-5--5-5--7-7--5-5---5-5--5-5--7-7--5-5---5-5--5-5--7-7--5-5----|
A|-----------------------------------------------------------------|
D|-----------------------------------------------------------------|

"I think about the good times we had"
e|-----------------------------------------------------------------|
B|-----------------------------------------------------------------|
G|-----------------------------------------------------------------|
D|------------2-00-----------------------2-00----------------------|
A|----2---33---------------------2---33----------------------------|
D|-55---5---------------------55---5-------------------------------|

"so I sit at the edge of my bed"
e|----3----------3----3--3--5----15-15-15-12-12-12-10-10-10--------|
B|----3----------3----3--5--7--------------------------------------|
G|----4----------4----4--5--7--------------------------------------|
D|----5----------5----5--5--7--------------------------------------|
A|-----------------------------------------------------------------|
D|-----------------------------------------------------------------|

"I strum my guitar and I'm singing out a love song"
e|----3----------3----3--3--5--------------------------------------|
B|----3----------3----3--5--7--------------------------------------|
G|----4----------4----4--5--7--------------------------------------|
D|----5----------5----5--5--7--------------------------------------|
A|-----------------------------------------------------------------|
D|-----------------------------------------------------------------|
"think about what you're doing now"
e|-3-3--3-3--5-5--3-3----3-3--3-3--5-5--3-3------------------------|
B|-3-3--5-5--7-7--5-5----3-3--5-5--7-7--5-5------------------------|
G|-4-4--5-5--7-7--5-5----4-4--5-5--7-7--5-5------------------------|
D|-5-5--5-5--7-7--5-5----5-5--5-5--7-7--5-5------------------------|
A|-----------------------------------------------------------------|
D|-----------------------------------------------------------------|
"and when You're coming back, aaaooouuoouu"
e|-----------------------------------------------------------------|
B|-----------------------------------------------------------------|
G|-----------------------------------------------------------------|
D|------------2-00-----------------------2-00----------------------|
A|----2---33---------------------2---33----------------------------|
D|-55---5---------------------55---5-------------------------------|

Play chorus again
Outro: just strum the ska chords and use that high pitched riff from verse three.
That's all. Any questions or comments mail me at simonpym@tpg.com.au
pymmy
Comments