Reel Big Fish - She Has A Girlfriend Now Chords & Tabs

 

She Has A Girlfriend Now Chords & Tabs

Reel Big Fish Chords & Tabs

Version: 2 Type: Bass Tab 0 ratings
1 star 2 stars 3 stars 4 stars 5 stars
comments

She Has A Girlfriend Now Bass Tab

SHE HAS A GIRLFRIEND NOW 
  reel big fish
  tabbed by by daniel garrett
  
[ Tab from: http://www.guitartabs.cc/tabs/r/reel_big_fish/she_has_a_girlfriend_now_btab_ver_2.html ]
  --------------------------------
  ----9--------------------------- listen to the cd to  
  -7-----7----11------4-5-7-9-7-6- get the accurate amount
  ----------9----9--5------------- of times you play this.
      fast part
      ----------------------------------
 REST ---6-9---------------------------- repeat
      -7-----7---7-11-----4-5-6-7-9-7-6- twice
      ---------9------9-5---------------
  outro
  ---------------------
  --------------------- repeat 
  ----------7---------- 8 times
  -7--5--7-----9--7--5-
Comments