Reel Big Fish - Sell Out Chords & Tabs

 

Sell Out Chords & Tabs

Reel Big Fish Chords & Tabs

Version: 3 Type: Bass Tab 0 ratings
1 star 2 stars 3 stars 4 stars 5 stars
comments

Sell Out Bass Tab

Check rythyms on some parts, like the part right after the verse.

Intro
G|------------------------------------------------------
D|---------REST---------REST---------REST---------------
A|-44-3-44------44-3-44------44-3-44------44-3-44--4/14-
E|------------------------------------------------------

Intro/Pre Verse
G|--------------------------------------------------------------------
D|-----------------------------5-6-8---------8-6-5--------------------
A|-------------------4-4-444-6---------------------6-4-4-444--6-4-3-1- x2
E|-4-4-444-6-666-666-----------------4-4-444--------------------------

Verse
G|------------------------------------
D|----------------------3-------------
A|----3--------4-----4-----4--6-4-3-1- x2
E|-4-----4--6-----6-------------------
 
G|------------------------------------  
D|------------------------------------
A|-------------------4-4-444--6-4-3-1-
E|-4-4-444-6-666-666------------------

G|------------------------------------------------------------------8-----8--
D|----------------------3-----1------------------------------------8-8---8-8-
A|----3--------4-----4-----4----4-3-1-----3--------4-----3---4---6-----6-----
E|-4-----4--6-----6--------------------4-----4--6-----6----------------------

Chorus?
G|-------------------------------------------
D|-------------------------------------------
A|-444-----444-----444-----4444----6-6-4-5-6-
E|-----4-------4-------4---------------------

G|-------------
D|-------------
A|-----3\4-4-6- x4
E|-4-----------

Intro/Pre Verse
G|--------------------------------------------------------------------
D|-----------------------------5-6-8---------8-6-5--------------------
A|-------------------4-4-444-6---------------------6-4-4-444--6-4-3-1- x2
E|-4-4-444-6-666-666-----------------4-4-444--------------------------

Verse
G|------------------------------------
D|----------------------3-------------
A|----3--------4-----4-----4--6-4-3-1- x2
E|-4-----4--6-----6-------------------
 
G|------------------------------------  
D|------------------------------------
A|-------------------4-4-444--6-4-3-1-
E|-4-4-444-6-666-666------------------
[ Tab from: http://www.guitartabs.cc/tabs/r/reel_big_fish/sell_out_btab_ver_3.html ]
G|------------------------------------------------------------------8-----8--
D|----------------------3------------------------------------------8-8---8-8-
A|----3--------4-----4-----4--6-4-3-1-----3--------4-----3---4---6-----6-----
E|-4-----4--6-----6--------------------4-----4--6-----6----------------------

Chorus
G|-------------------------------------------
D|-------------------------------------------
A|-444-----444-----444-----4444----6-6-4-5-6-
E|-----4-------4-------4---------------------

G|-------------
D|-------------
A|-----3\4-4-6- x4
E|-4-----------

G|------------------------------------------------------
D|---------REST---------REST---------REST---------------
A|-44-3-44------44-3-44------44-3-44------44-3-44--4/14-
E|------------------------------------------------------

Bridge
G|------------------------------------------------------------------
D|---------------------------------------------------------44-3-----
A|-3-3-333-4-4-444-----------------3-3-333-4-4-444---3-4-6------6-4-
E|-----------------4-4-444-4-4-444-----------------4----------------

G|------------------------------------------------------------8-----8--
D|-----------------------------------------------------------8-8---8-8-
A|---------4-4-444-------------------------3-3-333-4-4-444-6-----6-----
E|-6-6-666---------4-4-444-4-4-444-6-6-666-----------------------------
 
Chorus
G|-------------------------------------------
D|-------------------------------------------
A|-444-----444-----444-----4444----6-6-4-5-6-
E|-----4-------4-------4---------------------

G|-------------
D|-------------
A|-----3\4-4-6- x4
E|-4-----------

Ending
G|--------------------------------------------------------------------
D|-----------------------------5-6-8---------8-6-5--------------------
A|-------------------4-4-444-6---------------------6-4-4-444--6-4-3-1- x2
E|-4-4-444-6-666-666-----------------4-4-444--------------------------

G|-----------------------------------------------------------------------
A|-----------------------------------------------------------------------
D|-------------------44444444-6-4-3-1-------------------44444444-6-4-3-1-
E|-44444444-66666666------------------44444444-66666666------------------

Check number of times you play ending part.
Comments