Reel Big Fish - Scotts A Dork Chords & Tabs

 

Scotts A Dork Chords & Tabs

Reel Big Fish Chords & Tabs

Version: 1 Type: Bass Tab 0 ratings
1 star 2 stars 3 stars 4 stars 5 stars
comments

Scotts A Dork Bass Tab

Intro x3
G|--------------------------|--------------------------------|----------------------|
D|-----88-66----------------|---------66-55---------6-6-7-7--|----------------------|
A|-----------88-66-55-66-88-|------88-------8-8-8-8----------|----------------------|
E|--66----------------------|---66---------------------------|----------------------|

Verse 1 x2		     1st ending	     2nd ending
G|---------------------------------|---------------|-------10-----|-----------------|
D|------7h8-10-8/12-10-8-----8-----|---------------|----10----10--|-----------------|   riff 1
A|-------------------------6---66--|--88-66-55-----|--8-----------|-----------------|
E|--6h8----------------------------|-----------88--|--------------|-----------------|


     X2
G|-------------------------------------|--------------------------------------------|
D|------86-------86------86-------7-7--|------7h8-10-8/12-10-8-----8----------------|   riff 2
A|--------86-------86------86-8-8------|-------------------------6---6-6-8-8-8-8----|
E|--6-6------6-6------6-6--------------|---6h8--------------------------------------|

Bridge

G|----------------------------------------------------------------------------10----|
D|----7-8-7---------------------------------7-8-7-----------------10-------10----10-|
A|--8-------10-8-7--------7-8-7-----------8-------10-8-7-------10----10--8----------|
E|------------------10--8-------10-8-7-5-----------------10--8----------------------|


Chorus x2
G|--------------------------------------------|-------------------------------------|
D|--------------------------------------------|-------------------------------------|
A|--------------------------------------------|-------------------------------------|
E|---66-6-6-6---33-3-3-3---66-6-6-6--3-3-1-1--|-------------------------------------|


Verse 2
riff 1

[ Tab from: http://www.guitartabs.cc/tabs/r/reel_big_fish/scotts_a_dork_btab.html ]
                X2
G|-------------------------------------|--------------------------------------10----|
D|------86-------86------86-------7-7--|------7h8-10-8/12-10-8-----8-------10----10-|
A|--------86-------86------86-8-8------|-------------------------6---6-6-8----------|
E|--6-6------6-6------6-6--------------|---6h8--------------------------------------|

Bridge


Chorus

G|----------------------------------------------------------------------------------------|
D|----------------------------------------------------------------------------------------|
A|----------------------------------------------------------------------------------------|
E|-66-6-6-6--33-3-3-3--66-6-6-6--3-3-1-1---66-6-6-6--33-3-3-3--66-6-6-6--1-1-1-1-1-1-1-1--|


		X4				    1-3				     4 time
G|-----------------------------------|------------------------------------|-------------------------|
D|-----------------------------------|----7-10-8-7---------7-10-8-7-------|--------------8-8-10-10--|
A|--6-6-6-6-5-5-6-6-6-6-6-6-5-5-6-6--|--8----------10-8--8----------10-8--|--8---6---8--------------|
E|-----------------------------------|------------------------------------|-------------------------|

riff 3
riff 4


G|-------------------------------------------------|
D|-------------------------------------------------|
A|-------------------------------------------------|
E|-------------8-8---55-5-5-5--88-8-8-8--5-5-3-3---|


		X2				1st		2nd	      then quickly hit
G|------------------------------------|--------------------|---------12-----|-------|
D|------9h10-12-10/14-12-10---10------|--------------------|------12----12--|-------|
A|--------------------------8----8-8--|---1010-88-77-------|---10-----------|-------|
E|--8h10------------------------------|--------------1010--|----------------|---6---|

End  |---------------------|
     |---------------------|
     |-------------1-------|
     |-----2------1--------|
Comments