Reel Big Fish - Kiss Me Deadly Chords & Tabs

 

Kiss Me Deadly Chords & Tabs

Reel Big Fish Chords & Tabs

Version: 2 Type: Tab

Kiss Me Deadly Tab

   
-------------------------------------------------------------------------------
			     KISS ME DEADLY - Reel Big Fish
-------------------------------------------------------------------------------
Tabbed by:Sparkysparks
Email:sparky_theflatlander@hotmail.com

Tuning:Eadgbe
       
 Intro:  (one, two, three, four)           (Let me tell you what i did)
e|--------------------------------------------------------------------------|
B|---8---------------------------8-8-x-8------------------------------------|
G|---8---------------------------8-8-x-8------------------------------------|
D|---8---------------------------8-8-x-8------------------------------------|
A|---6---------------------------6-6-x-6------------------------------------|
E|--------------------------------------------------------------------------|

 Verse:(I went to a party...)                Repeat some times              
e|--------------------------4-4x-4x-4x-4x-4x-4x-4x---|--------|
B|--8-8x-8x-8x-8x-8x-8x-8x--4-4x-4x-4x-4x-4x-4x-4x---|--------|
G|--8-8x-8x-8x-8x-8x-8x-8x--5-5x-5x-5x-5x-5x-5x-5x---|-8-7-8--|
D|--8-8x-8x-8x-8x-8x-8x-8x--6-6x-6x-6x-6x-6x-6x-6x---|-8-7-8--|
A|--6-6x-6x-6x-6x-6x-6x-6x---------------------------|-6-5-6--|
E|---------------------------------------------------|--------|

   (But I know what i like....)
e|-----------------------------------------| Repeat some times
B|--8x-8x-8x-8x--4x-4x-6x-6x---------------|
G|--8x-8x-8x-8x--5x-5x-7x-7x---------------|
D|--8x-8x-8x-8x--6x-6x-8x-8x---------------|
A|--6x-6x-6x-6x----------------------------|
E|-----------------------------------------|

Pre-chorus:               (Dance with me)
e|-------------------------------------------------|
B|-------------------------------------------------|
G|--88-88-----------//////-------------------------|
D|--88-88--55-55-6--//////---8---------------------|
A|--66-66--55-55-6--//////-----(7)-----------------|
E|---------33-33-4--//////-6-----------------------|
[ Tab from: http://www.guitartabs.cc/tabs/r/reel_big_fish/kiss_me_deadly_tab_ver_2.html ]
Chorus:
e|---------------------------------| Play twice, then on                     
B|--8-88-88------------------------| third hold notes for longer.
G|--8-88-88------------------------|
D|--8-88-88-5-55-6-68--------------| Then repeat
A|--6-66-66-5-55-6-68--------------|
E|----------3-33-4-46--------------|

Play verse and chorus again

Breakdown (trumput solo thing:
e|-4-3-6-4-3-6--------|
B|-4-4-6-4-4-6--------| Strumming Not Defined  (Ska Strumming though)
G|-5-5-7-5-5-7--------|
D|-6-5-8-6-5-8--------|
A|---3-----3----------|
E|--------------------|

Pre-chorus type two:
e|---------------------------------------------------------|
B|---------------------------------------------------------|
G|--8-7-8---8-7-8------------------------------------------|
D|--------8-------6-h8p6-h8p6-h8p6-h8p6-h8p6---------------|
A|---------------------------------------------------------|
E|---------------------------------------------------------|

e|---------------------------------------------------------------------|
B|---------------------------------------------------------------------|
G|--8-7-8---8-7-8-------------8-7-8---8-7-8----------------------------|
D|--------8-------6-----------------8-------6-h8p6-h8p6-h8p6-h8p6-h8p6-|
A|--------------------8------------------------------------------------|
E|---------------------------------------------------------------------|

e|-------------------------------------------------|
B|-------------------------------------------------|
G|--88-88-----------//////-------------------------|
D|--88-88--55-55-6--//////---8---------------------|
A|--66-66--55-55-6--//////-----(7)-----------------|
E|---------33-33-4--//////-6-----------------------|

Play chorus, near end play this
e|--------------------------------------|
b|--------------------------------------|
G|-8888---------------------------------|
D|-8888---------------------------------|
A|-6666-5555-6666-3333-6666-8888--------|
E|------3333-4444-1111-4444-6666--------|
 Then end of chorus again, then outro

Outro
e|------------------44x4x4x-6---11-------|
B|-88x8x8x8x8x8x8x--44x4x4x-6---11-------|
G|-88x8x8x8x8x8x8x--55x5x5x-7---12-------|
D|-88x8x8x8x8x8x8x--66x6x6x-8---13-------|
A|-66x6x6x6x6x6x6x-----------------------|
E|---------------------------------------|
END

Enjoy

| /  slide up
| \  slide down
| h  hammer-on
| p  pull-off
| ~  vibrato
| +  harmonic
| x  Mute note
=============================================================================