Reel Big Fish - Join The Club Chords & Tabs

 

Join The Club Chords & Tabs

Reel Big Fish Chords & Tabs

Version: 3 Type: Bass Tab 0 ratings
1 star 2 stars 3 stars 4 stars 5 stars
comments

Join The Club Bass Tab

                                      . .
G-------|-------|-16/1716-|-------|-------|
D-Drums-|-Horns-|-15/1615-|-Horns-|--7-7--|
A-------|-------|---------|-------|-------|
E-------|-------|---------|-------|-------|

                  _____________ ____________________
                 |1,2,3        |4
G-|--------------|-------------|--------------------|
D-|*-------------|------------*|--------------------|
A-|*-------7^9p7-|-5-5--4h5p4-*|-/12-12-12-9-9/10-7-|
E-|--5-5-5-------|-------------|--------------------|

                  _____________ ____________
                 |1,2          |3
G-|--------------|-------------|------------|
D-|*-------------|------------*|------------|
A-|*-------7^9p7-|-5-5--4h5p4-*|-5----/12-7-|
E-|--5-5-5-------|-------------|------------|
[ Tab from: http://www.guitartabs.cc/tabs/r/reel_big_fish/join_the_club_btab_ver_3.html ]
    fast              8x   heavy part 3x
G-|---------------------|---------------|
D-|*-7---5-7-----------*|*-------------*|
A-|*------4-4/5-5-7--7-*|*----44-55-77-*|
E-|---5-5---------------|--77-----------|
  improvise on this riff, but this is the general idea.

                      6x              4x
G-|---------------------|---------------|
D-|*-7---5-7-----------*|*-------------*|
A-|*------4-4/5-5-7--7-*|*----44-55-77-*|
E-|---5-5---------------|--77-----------|


    well i just saw them...
G-|-----------------|-----------------|----------------9-----9-|
D-|-----------------|-----------------|-----------7--9-9--9--9-|
A-|----44-55-/19~---|----44-55-/19~~--|44 5--7-----7-----------|
E-|-77--------------|-77--------------|77----------------------|

                  _____________ __________________
                 |1,2,3        |4
G-|--------------|-------------|------------------|
D-|*-------------|------------*|------------------|
A-|*-------7^9p7-|-5-5--4h5p4-*|-/12-12-12--------|
E-|--5-5-5-------|-------------|------------9-----|X9
Comments