Reel Big Fish - I Want Your Girlfriend Chords & Tabs

 

I Want Your Girlfriend Chords & Tabs

Reel Big Fish Chords & Tabs

Version: 1 Type: Bass Tab 0 ratings
1 star 2 stars 3 stars 4 stars 5 stars
comments

I Want Your Girlfriend Bass Tab

Normal tuning

Intro
G--------------------------------------------------------------|
D---0-----------------0----------------0-------------0---------|
A--2---2-33-2-0-2-0--2-----2-332-020--2---2-332020--2--2-33-55-|
E-3---3-------------3-----3----------3---3---------3--3--------|

Main Riff
G---------------------------------------------------|
D-----------------------------------------54--------|
A--2-5-2-32-55--2-5-2-32-55---2-5-2-32-55----753235-|
E-3------------3-------------3----------------------|

Verse (You can play this the same as the main riff but it think it sounds better like this)
G--------------|
D---------2-4--|
A--2-5-2-3-5---|
E-3------------|

Prechorus
G----------55-------------|
D-----5-77------542---754-|
A-000---------3-----5-----|
E-------------------------|
[ Tab from: http://www.guitartabs.cc/tabs/r/reel_big_fish/i_want_your_girlfriend_btab.html ]
Chorus
G------------------------------------------------------|
D------------------------------------------------------|
A------333-555-------333-555------333-5--------333-555-|
E-3333---------3333----------3333---------3333---------|

Bridge/Bass Solo
G----------------------------------------------------------------------------------------------------------------|
D----5----------------5---------------5-----------------5--------------------------------------------------------|
A--------023-55-35--------023-5320---------023-5532----------030-5------333-555------333-55-----33-5-------33-55-|
E-33---3-----------33---3----------33----3-----------33----3-------3333---------3333--------333-------3333-------|

G-----0-22-55---------20--|
D--------------542------4-|
A-000---------3----5------|
E-------------------------|

Outro
G-----------------------------------------------------------------------------|
D---0-----------------0----------------0--------------------------------------|
A--2---2-33-2-0-2-0--2-----2-332-020--2---2-332020---3-5----------------------|
E-3---3-------------3-----3----------3---3---------3-----33333333333333333333-|
Comments