Reel Big Fish - I Want You Girlfriend Chords & Tabs

 

I Want You Girlfriend Chords & Tabs

Reel Big Fish Chords & Tabs

Version: 1 Type: Tab 0 ratings
1 star 2 stars 3 stars 4 stars 5 stars
comments

I Want You Girlfriend Tab

   
T1: Geoff Morrissey, pmorrissey03@snet.net, Reel Big Fish, I Want Your
Girlfriend, 1998

S1: 
Intro: (Bass)
G-----------------------|-----------------------|
B-----------------------|-----------------------|
D-----2-----2-3-3-2-3p2-|-----2-----2-3-3-2-3p2-|
E-3-3---3-3-------------|-3-3---3-3-------------|

Guitar:
E-3-3-3-3-3-3-3-3-|-3-3-3-3-3-3-5-5-|
B-3-3-3-3-5-5-5-5-|-3-3-3-3-5-5-7-7-|
G-4-4-4-4-5-5-5-5-|-4-4-4-4-5-5-7-7-|
D-----------------|---------5-5-7-7-|
A-----------------|-----------------|
E-----------------|-----------------|

Pre-Verse:
E-3-3-3-3-3-3-5-5-|-3-3-3-3-3-3-5-5-|-3-3-3-3-3-3-5-5-|-3-3-3-3-3-3-5-5--|
B-3-3-3-3-5-5-7-7-|-3-3-3-3-5-5-7-7-|-3-3-3-3-5-5-7-7-|-3-3-3-3-5-5-7-7\-|
G-4-4-4-4-5-5-7-7-|-4-4-4-4-5-5-7-7-|-4-4-4-4-5-5-7-7-|-4-4-4-4-5-5-7-7\-|
D-----------------|-----------------|-----------------|---------5-5-7-7\-|
A-----------------|-----------------|-----------------|------------------|
E-----------------|-----------------|-----------------|------------------|

Verse:           Play 5x         
E--3-3-3-3-3-3-x-5-5-5--|-----------------|----------------------|
B--3-3-3-3-5-5-x-7-7-7--|-----------------|----------------------|
G.-4-4-4-4-5-5-x-7-7-7-.|-----------------|----------------------|
D.---------------------.|-7-7-7-7-7-7-7-9-|-10-10-10-10-12-x-x-x-|
A-----------------------|-7-7-7-7-7-7-7-9-|-10-10-10-10-12-x-x-x-|
E-----------------------|-5-5-5-5-5-5-5-7-|--8--8--8--8-10-x-x-x-|

Chorus:    Play 3x
E-----------------|-------------------|
B-----------------|-------------------|
G.-----x-5-5\7-7-.|-----x-5-5-5\7-7-7-|
D.-5-5-x-5-5\7-7-.|-5-5-x-5-5-5\7-7-7-|
A--5-5-x-3-3\5-5--|-5-5-x-3-3-3\5-5-5-|
E--3-3------------|-3-3---------------|
[ Tab from: http://www.guitartabs.cc/tabs/r/reel_big_fish/i_want_you_girlfriend_tab.html ]
Repeat Pre-Verse
Repeat Verse but play the first bar 6 times instead of 5
Repeat Chorus

Guitar Solo:
E-\3-3-3-3-5-3-------------|-------------------------------|
B-\3-----------3-3---------|---------3-3-------------------|
G-\4---------------5-5-4-0-|-----4-------------------------|
D--------------------------|-5-5---5-----\10-10-9-10-12-12-|
A--------------------------|-------------------------------|
E--------------------------|-------------------------------|

E-8-8-7-----------------|---------------------|
B-------8---------------|---------------------|
G---------7-9-7\5/7-7~~-|---------------------|
D-----------------------|-5-5-4-2-------------|
A-----------------------|---------5-5-3-2-----|
E-----------------------|-----------------3~~-|
E-------------------------------|---------------------|
B-------------------------------|---------------------|
G-------------------------------|-2-2-2h4p2-5-2\7~~---|
D-------------0-0-\7-7-4-4-0-0--|---------------------|
A-0-0-2-2-3-3-------------------|---------------------|
E-------------------------------|---------------------|

Half Time:  Play 3x
E--3---3---3---5--|--3---3---3------|
B--3---3---5---7--|--3---3---5------|
G.-4---4---5---7-.|--4---4---5------|
D.---------------.|-----------------| 
A-----------------|-----------------|
E-----------------|-----------------|

Double Time:        Play 4x
E-------------------------|-----------------|-------------------------|
B-------------------------|-----------------|-------------------------|
G----------x-5-5-5\7-7-7-.|-----------------|-------------------------|
D--5-5-5-5-x-5-5-5\7-7-7-.|-7-7-7-7-7-7-7\9-|-10-10-10-10-12-x-x------|
A--5-5-5-5-x-3-3-3\5-5-5--|-7-7-7-7-7-7-7\9-|-10-10-10-10-12-x-x------|
E--3-3-3-3----------------|-5-5-5-5-5-5-5\7-|--8--8--8--8-10-x-x-x\\\-|

Repeat Chorus
Play First 3 bars of Pre-Verse

Then Go Nuts

Comments