Reel Big Fish - Everything Sucks Chords & Tabs

 

Everything Sucks Chords & Tabs

Reel Big Fish Chords & Tabs

Version: 1 Type: Bass Tab 0 ratings
1 star 2 stars 3 stars 4 stars 5 stars
comments

Everything Sucks Bass Tab

Song: Everything Sucks
Artist: Reel Big Fish
Album: Turn the radio off
Tabbed By: Skatom


    Intro                   Then...         4th time play:            
G-------------------------|---------------|----------------
D-------------------------|---------------|----------------
A-------1-3---1-3-----1-3-|-----0-1-1-3-3-|-3-3/5-3--------
E---1-------------1-------|-1-1-----------|----------------


    Then...                 After the horns do their bit...         
G------------------------|---------------------------------
D------------------------|---------------------------------
A--3-1-0---3-1-3-1-0-----|-----------------0-0-0-0-1-1-1-1-
E--------3-----------3-1-|-1-1-1-1-1-1-1-1-----------------
 
                                                p                     
G-----------------------------------------------5-
D-------3-----------------------------------------
A-----3---3-5-5-5-3-------------0-0-1-1---1-3-----
E---1---------------5-3-1-1-1-1---------------3---
                                                                    

    There's a ska band...                   x3                        
G-----------------------|---p-----------------
D-----------------------|---3-----------------
A-------------1---1h3---|-----------1---1h3---
E---1-1-1-3-3---3-----1-|-1---1-3-3---3-----1-
                                                                      

  There was nothing on the radio  x2                                 
G-----p-----p---p-----p-----p---p---
D-----3-----5---5-----3-----5---5---
A---------------------------------1-
E---1---1-3---3---3-1---1-3---3-----
                                                                      

[ Tab from: http://www.guitartabs.cc/tabs/r/reel_big_fish/everything_sucks_btab.html ]
    She said she loved me...        Repeat 1st half   Slide slowly... 
G---------------------------------------------------|-----------------
D-------------------------------------------5-3-----|-----------------
A---1-1-3-1-0-------1-3-----3-3-5-3-------------5-3-|-----------------
E-------------3-1-1-----1-----------5-3-1-1---------|-3/--------------
                                                                      

    Chorus          x2                                                
G---------------------|---------------------------|
D---------------------|---------------------------|
A---------0-1-1-1-3-3-|-----0-0-1-1-3-3-1-1-1-1-3-|
E---1---1-------------|-1-1-----------------------|
                                                                      

Repeat the pre verse, verse and chorus


  Bridge: She says some day...            I don't believe her...      
G---------------------------------------|-----------------------7-5---
D---------7-5---------------------------|---3-1-0---3-1-0-----5-------
A---5---5-----8-7-8-5---------5-3-1-0-1-|-1-------1-------3-3---------
E-----------------------3---3-----------|---------------------------6\
                                                                      
    Anymoooooooooore!                                                 
G----------------------
D----------------------
A-------0-0-1-1-3-3----
E---1-1----------------
                                                                      
Then repeat the chorus.
The end is just similar notes but in a different rhythm.

This song isn't too hard, once you get the pops in the verse 
sounding good its a great song to play.

well, that should be it, any comments or whatever:
skatom@excite.com

catchya
Comments