Reel Big Fish - Drunk Again Chords & Tabs

 

Drunk Again Chords & Tabs

Reel Big Fish Chords & Tabs

Version: 1 Type: Tab 0 ratings
1 star 2 stars 3 stars 4 stars 5 stars
comments

Drunk Again Tab

   
-------------------------------------------------------------------------------
			     Drunk Again - Reel Big Fish
-------------------------------------------------------------------------------

Tabbed by: Capt Carl
Email: pants@blueyonder.co.uk

Tuning: Standard EADGBE
Clean Tone
Intro and Verse: (Very Slow Strumming, strong downstroke sharp upstroke)
    F       A       Bb      C
e|--1--1----5--5----6--6----3--3---------------------------------------------|
B|--1--1----5--5----6--6----5--5---------------------------------------------|
G|--2--2----6--6----7--7----5--5---------------------------------------------|
D|--3-------7-------8-------5------------------------------------------------|
A|--3-------7-------8-------3------------------------------------------------|
E|--1-------5-------6-------3------------------------------------------------|

After Verse: (slightly faster, steady sturmming)
    F       C       F       C
e|--1--1----3--3----1--1----3--3---------------------------------------------|
B|--1--1----5--5----1--1----5--5---------------------------------------------|
G|--2--2----5--5----2--2----5--5---------------------------------------------|
D|--3--3----5--5----3--3----5--5---------------------------------------------|
A|--3--3----3--3----3--3----3--3---------------------------------------------|
E|--1--1----3--3----1--1----3--3---------------------------------------------|
[ Tab from: http://www.guitartabs.cc/tabs/r/reel_big_fish/drunk_again_tab.html ]
Chorus: (Faster still, steady strumming)
    F        Eb       Bb       C#       C
e|--1-1-1-1--6-6-6-6--6-6-6-6--4-4-4-4--3-3-3-3------------------------------|
B|--1-1-1-1--8-8-8-8--6-6-6-6--6-6-6-6--5-5-5-5------------------------------|
G|--2-2-2-2--8-8-8-8--7-7-7-7--6-6-6-6--5-5-5-5------------------------------|
D|--3-3-3-3--8-8-8-8--8-8-8-8--6-6-6-6--5-5-5-5------------------------------|
A|--3-3-3-3--6-6-6-6--8-8-8-8--4-4-4-4--3-3-3-3------------------------------|
E|--1-1-1-1--6-6-6-6--6-6-6-6--4-4-4-4--3-3-3-3------------------------------|

Middle: (Slightly Distorted, steady strumming)
    A        F#       F        E
e|--5-5-5-5--2-2-2-2--1-1-1-1--0-0-0-0---------------------------------------|
B|--5-5-5-5--2-2-2-2--1-1-1-1--0-0-0-0---------------------------------------|
G|--6-6-6-6--3-3-3-3--2-2-2-2--1-1-1-1---------------------------------------|
D|--7-7-7-7--4-4-4-4--3-3-3-3--2-2-2-2---------------------------------------|
A|--7-7-7-7--4-4-4-4--3-3-3-3--2-2-2-2---------------------------------------|
E|--5-5-5-5--2-2-2-2--1-1-1-1--0-0-0-0---------------------------------------|
 
   D        E		(repeat this bit a few times
e|--5-5-5-5--7-7-7-7---------------------------------------------------------|
B|--7-7-7-7--9-9-9-9---------------------------------------------------------|
G|--7-7-7-7--9-9-9-9---------------------------------------------------------|
D|--7-7-7-7--9-9-9-9---------------------------------------------------------|
A|--5-5-5-5--7-7-7-7---------------------------------------------------------|
E|--5-5-5-5--7-7-7-7---------------------------------------------------------|

End with the Verse Chords.

===============================================================================
Comments