Reel Big Fish - Drunk Again Chords & Tabs

 

Drunk Again Chords & Tabs

Reel Big Fish Chords & Tabs

Version: 1 Type: Bass Tab

Drunk Again Bass Tab

Legend

*  higher register notes, ie 12 not 1,2
/  slide up to the note
  slide down from the note

Intro

|--------|--------|
|--------|--------|
|------22|3333--55|
|3333----|--------|

Verse

|--------|--------|
|--------|--------|
|-----2--|3---535-|
|333-----|--------|

Chorus
 			          *-------*
|--------|--------|---------|-------------|
|----7--5|----3---|----7/75-|-------------|
|5555-57-|3333-x23|5555-----|3333/1210--10|
|--------|--------|---------|---------12--|

|---------|--------|--------|--------|
|----7----|----3---|-----7--|-letring|
|5555-575-|3333-x23|55555-75|3-------|
|---------|--------|--------|--------|

Bridge
[ Tab from: http://www.guitartabs.cc/tabs/r/reel_big_fish/drunk_again_btab.html ]
|--------|--------|-letring|--------|
|--------|--------|0-------|--------|
|-letring|-letring|--------|-letring|
|3-------|1-------|--------|1-------|

|--------|--------|-letring|--------|
|--------|--------|0-------|--------|
|-letring|-letring|--------|11111111|
|3-------|1-------|--------|--------|

Outro

|--------|--------|--------|--------|
|--------|--------|--------|--------|
|--------|--------|--------|--------|
|333-----|--------|333-----|--------|

Outro2

|--------|--------|--------|
|--------|--------|--------|
|-letring|Stillringing-=)--|
|3-------|--------|--------|

Song Structure

Horns  (1 bar)
Intro  X3
Verse  X8
Chorus X1
Verse  X4
Chorus X1
Verse  X2
Intro  X4
Bridge X1
Horns  (2 bars)
outro  X1
Intro  X8
outro2 X1