Reel Big Fish - Drinkin Chords & Tabs

 

Drinkin Chords & Tabs

Reel Big Fish Chords & Tabs

Version: 2 Type: Tab 0 ratings
1 star 2 stars 3 stars 4 stars 5 stars
comments

Drinkin Tab

   
Guitar 1

|--10----10----10----10----9----9----7---7--------------|
|-----10----10----10----10---10---10---8---8------------|
|-------------------------------------------------------|
|-------------------------------------------------------|
|-------------------------------------------------------|

Do that little riff twice before guitar 2 enters with:

|-------------------------------------------------------|
|--7-~~~~~~~~~~~~----999-----777------------------------|
|--7-~~~~~~~~~~~~----777-----555------------------------|
|--5-~~~~~~~~~~~~---------------------------------------|
|-------------------------------------------------------|

Play that 3x then 

riff 1
|-------------------------------------------------------|
|-------------------------------------------------------|
|-------------------6-7-9-7-----------------------------|
|-7-7-7-7-7-7-7-7---4-5-7-5\----------------------------|
|-5-5-5-5-5-5-5-5---------------------------------------|
PM***************

Play Ska Upchords

	     A     G     D
she told me that I was lame 

               A       G     D
with her middle finger in my face

               Bm               Riff 1
wont waste her time with such a loser

D        A      G       D   
so now I wallow in regret

                    A          G         D
wanna do something right but I haven't yet

             Bm               Riff 1
why do my endeavors end up in failure


Play as Power Chords

G            A      D       F# E D
I think I'll go out drinkin'

G            A      D       F# E D
drinkin' all night long

G               A
cuz if I go out drinkin'

D               Bm
then I can stop thinkin'

G            A             Play Intro
bout how the world done me wrong


Ska Upstrokes

D         A         G       D
I guess I shouldn't feel so bad

          A           G          D
ain't got much reason to feel so sad

               Bm                  Riff 1
'cept that I'm poor untalented and ugly

D          A          G     D
I know its like they always say

               A        G        D
good times and bad will come our way

                    Bm                      Riff 1
but theres only one thing that'll make this easier


Play as Power Chords
[ Tab from: http://www.guitartabs.cc/tabs/r/reel_big_fish/drinkin_tab_ver_2.html ]
G            A      D       F# E D
I think I'll go out drinkin'

G            A      D       F# E D
drinkin' all night long

G               A
cuz if I go out drinkin'

D               Bm
then I can stop thinkin'

G            A             Bm
bout how the world done me wrong


Bridge Played w/ ska upstrokes Slowly

   D
so wrong

            G          A          D
I sing this song and nobody sings along


Play Faster

           Bm
I've got a friend

           D
he's in my hand

        G
he understands

           A
he said to me everything wont be so bad!

Beginning Solo Part


G             A            D
|-------------------------------------------------------|
|-------------------------------------------------------|
|-------------------------------------------------------|
|---------5h7----------7h94/555-4/555-4/555-4/555------|
|-3-3-5/7------5-5-7/9----------------------------------|

G             A            D        Continue solo 
|-------------------------------------------------------|
|------------------------------------Guitar 2 plays-----|
|--------------------------------------Rhythm-----------|
|---------5h7----------7h9-----------------------------|
|-3-3-5/7------5-5-7/9----------------------------------|


G  A  D Bm
G  A

Play Intro

Play as upstrokes


G            A      D       
I think I'll go out drinkin'

G            A      D
drinkin' all night long

G               A
cuz if I go out drinkin'

D               Bm
then I can stop thinkin'

G            A             Play intro once
bout how the world done me wrong

Play as power chords

G            A      D       F# E D
I think I'll go out drinkin'

G            A      D       F# E D
drinkin' all night long

G               A
cuz if I go out drinkin'

D               Bm
then I can stop thinkin'

G            A            
bout how the world done me

G            A            
bout how the world done me

G            A             Play Intro
bout how the world done me wrong

End on D and yer done.  This is my first tab so bare with me.
Comments