Reel Big Fish - Call You Chords & Tabs

 

Call You Chords & Tabs

Reel Big Fish Chords & Tabs

Version: 1 Type: Tab 0 ratings
1 star 2 stars 3 stars 4 stars 5 stars
comments

Call You Tab

Tabs for “Call You” 
By Reel Big Fish
Tabbed by Sean M. (if you put this on your site, just give me credit)


Intro:

e|----------7-7--5-5-----x-x--7-7-7--x--5---|        2x
B|-------7--7-7--5--5----x-x--7-7-7--x--5---|
D|----8-----8-8--6----6--x-x--8-8-8--x--6---|
G|-9--------9-8--7-------x-x--9-9-9--x--7----|
A|------------------------------------------------|
E|------------------------------------------------|

Then play
e|---------------------------------
B|--------------------------------
D|--------------------------------
G|----7-777777777777777---
A|----7-777777777777777---
E|----5-555555555555555---



Verse:

e|--7-x-7---5---5--5--5---7---------------------
B|--7-x-7---6---5--5--5---7---------------------
G|--8-x-8---5---6--6--6---8---------------------
D|--9-x-9---7---7--7--7---9---------------------
A|--------------------------------------------------
E|--------------------------------------------------


Chorus:

e|------------------------------------------------------------------------------------
B|-----------------------------------------------------------------------------------
G|---6-6---7-7---9---(3x)---after third time play:-----------------------------
D|---6-6---7-7---9----------------------------------7777777777777777---
A|---4-4---5-5---7----------------------------------7777777777777777---
E|--------------------------------------------------5555555555555555---


Then play intro twice, then go into verse

Right after 2nd chorus and right before the slow part play:
[ Tab from: http://www.guitartabs.cc/tabs/r/reel_big_fish/call_you_tab.html ]
e|--------------------------------------------------------
B|--------------------------------------------------------
G|--------------------------------------------------------
D|--9999999999999999------------------------------
A|--9999999999999999------------------------------
E|--7777777777777777------------------------------



The slow part:

e|--x-7-x-7-x-7-x-7-x-5-x-5-x-5-x-5-eventually this goes into distortion
B|--x-7-x-7-x-7-x-7-x-5-x-5-x-6-x-6----------------
G|--x-8-x-8-x-8-x-8-x-6-x-6-x-5-x-5----------------
D|--x-9-x-9-x-9-x-9-x-7-x-7-x-7-x-7----------------
A|-------------------------------------------------
E|-------------------------------------------------

The last time you play that part ^^, at the end of it play this:

e|--55555555------5555555------------------------------------------
B|--66666666------5555555-------------------------------------------
G|--55555555------6666666------------------------------------------
D|--77777777------7777777------------------------------------------
A|-------------------------------------------------------------------------
E|-------------------------------------------------------------------------

The chorus after that goes like this:

e|------------------------------------------------------------ 3x
B|------------------------------------------------------------
D|-------------------------------------------------------4-4--
G|----7-7---4-4---9-9---or the last part can be played: -4-4--
A|----7-7---4-4---9-9------------------------------------2-2--
E|----5-5---2-2---7-7----------------------------------------

On the 4th time instead play

e|----------------------------------------
B|-----------------------------------------
D|-----------------------------------------
G|----2222222222222222-4444444444444444------
A|----2222222222222222-4444444444444444-----
E|----0000000000000000-2222222222222222-------  
Then you play the intro, then another slow part, 
then a regular chorus. 

Its easier if you listen to the song. That’s it! Enjoy! 
E-mail me at mcdervo@yahoo,com if you have any questions, comments, 
suggestions, etc…
Comments