Reel Big Fish - Brand New Hero Chords & Tabs

 

Brand New Hero Chords & Tabs

Reel Big Fish Chords & Tabs

Version: 1 Type: Tab 0 ratings
1 star 2 stars 3 stars 4 stars 5 stars
comments

Brand New Hero Tab

Song- Brand New Hero	
Band- Reel Big Fish	
Album- Cheer Up!
Submitted By- Dan McCafferty



[ Tab from: http://www.guitartabs.cc/tabs/r/reel_big_fish/brand_new_hero_tab.html ]
     Intro:                                                                           Last Time:
E-------------------------------------------------------------------------------|------------------------------------ 
B-------------------------------------------------------------------------------|--------------------------------------
G-------------------------------------------------------------------------------|-------6-----8------------------------
D---6---6---6---6----6---6---6---6----4---4---4-----3--/-4---4---4---4----------|-------6-----8------------------------
A---4---4---4---4----3---3---3---3----4---4---4-----3--/-4---4---4---4----------|-------4-----6------------------------
E-------------------------------------2---2---2-----1-/--2---2---2---2----------|---------------------------------------


      Chorus:
E-------------------------------------------------------
B-------------------------------------------------------
G---6---6---6-----------------8---8---8----------------
D---6---6---6----8---8---8----8---8---8----4----6-------
A---4---4---4----8---8---8----6---6---6----4----6-------
E----------------6---6---6-----------------2----4-------

That’s all I have done right now but hopefully I will figure out the solo soon…..

Comments