Reel Big Fish - Beer Chords & Tabs

 

Beer Chords & Tabs

Reel Big Fish Chords & Tabs

Version: 3 Type: Tab 0 ratings
1 star 2 stars 3 stars 4 stars 5 stars
comments

Beer Tab

   
Reel Big Fish - Beer
Everything Sucks

Tabbed By: Simon Mooney (skanking_in_unity@hotmail.com) aka anewhope

First off, I have yet to see a good tab for this song, or for any other Reel Big Fish
tabs on the net for that matter, so I decided to do this one myself!

The verses and chorus shouldnt present too much difficulty, infact it's a pretty easy
song all round.

Intro (Clean):

e |-5-5--5--5--5-|-1-1--1--1--1-|-0-0--0--0--0-|-3-3--3--3--3-|
b |-5-5--5--5--5-|-1-1--1--1--1-|-1-1--1--1--1-|-3-3--3--3--3-|
g |-5-5--5--5--5-|-2-2--2--2--2-|-0-0--0--0--0-|-4-4--4--4--4-|
d |-7-7--7--7--7-|-3-3--3--3--3-|-2-2--2--2--2-|-5-5--5--5--5-|
a |--------------|--------------|--------------|--------------|
E |--------------|--------------|--------------|--------------|

First Solo (Distorted):

e |-------------------------------10---12---12---10---------10--|
b |-10---10---10---10---/10---13----------------------13--------|
g |-------------------------------------------------------------|
d |-------------------------------------------------------------| 
a |-------------------------------------------------------------|  
E |-------------------------------------------------------------|

e |--------------------------|---------------------|----------------------|
b |-10p8---------------------|---------------------|----------------------|
g |------9-7--5--7--5-----5--|-(5)--------5-7-b(9)-|-(9)----7p5--7-(7)----|
d |--------------------7-----|--------5-7----------|------------------7-5-|
a |--------------------------|------7--------------|----------------------|
E |--------------------------|---------------------|----------------------|

Verse (Clean with ska strumming):

e |-5-5--5--5--5-|-1-1--1--1--1-|-0-0--0--0--0-|-3-3--3--3--3-|
b |-5-5--5--5--5-|-1-1--1--1--1-|-1-1--1--1--1-|-3-3--3--3--3-|
g |-5-5--5--5--5-|-2-2--2--2--2-|-0-0--0--0--0-|-4-4--4--4--4-|
d |-7-7--7--7--7-|-3-3--3--3--3-|-2-2--2--2--2-|-5-5--5--5--5-|
a |--------------|--------------|--------------|--------------|
E |--------------|--------------|--------------|--------------|

She called me late last night, to say she loved me so
Didn't matter anymore
I say she never cared and that she never will
Do it all again, I guess 'll have to wait till then

Chorus (Distorted):
Play four times

e |---------|---------|----------|---------|---------|----------|
b |---------|---------|----------|---------|---------|----------|
g |-5-5-5-5-|---------|----------|-5-5-5-5-|---------|----------|
d |-5-5-5-5-|-5-5-5-5-|--3-3-3-3-|-5-5-5-5-|-5-5-5-5-|-5-5-5-5--|
a |-3-3-3-3-|-5-5-5-5-|--3-3-3-3-|-3-3-3-3-|-5-5-5-5-|-5-5-5-5--|
E |---------|-3-3-3-3-|--1-1-1-1-|---------|-3-3-3-3-|-3-3-3-3--|

Solo:

e |-------------------------------10---12---12---10---------10--|
b |-10---10---10---10---/10---13----------------------13--------|
g |-------------------------------------------------------------|
d |-------------------------------------------------------------| 
a |-------------------------------------------------------------|  
E |-------------------------------------------------------------|

e |--------------------------|---------------------|----------------------|
b |-10p8---------------------|---------------------|----------------------|
g |------9-7--5--7--5-----5--|-(5)--------5-7-b(9)-|-(9)----7p5--7-(7)----|
d |--------------------7-----|--------5-7----------|------------------7-5-|
a |--------------------------|------7--------------|----------------------|
E |--------------------------|---------------------|----------------------|

Verse 2


e |-5-5--5--5--5-|-1-1--1--1--1-|-0-0--0--0--0-|-3-3--3--3--3-|
b |-5-5--5--5--5-|-1-1--1--1--1-|-1-1--1--1--1-|-3-3--3--3--3-|
g |-5-5--5--5--5-|-2-2--2--2--2-|-0-0--0--0--0-|-4-4--4--4--4-|
d |-7-7--7--7--7-|-3-3--3--3--3-|-2-2--2--2--2-|-5-5--5--5--5-|
a |--------------|--------------|--------------|--------------|
E |--------------|--------------|--------------|--------------|

She called me late last night to say she loved me, so..
But I guess she changed her mind
Well, I should have known it wouldn't be alright
But I can't live without her, so I won't even try..

Chorus (Distorted):
Play four times

e |---------|---------|----------|---------|---------|----------|
b |---------|---------|----------|---------|---------|----------|
g |-5-5-5-5-|---------|----------|-5-5-5-5-|---------|----------|
d |-5-5-5-5-|-5-5-5-5-|--3-3-3-3-|-5-5-5-5-|-5-5-5-5-|-5-5-5-5--|
a |-3-3-3-3-|-5-5-5-5-|--3-3-3-3-|-3-3-3-3-|-5-5-5-5-|-5-5-5-5--|
E |---------|-3-3-3-3-|--1-1-1-1-|---------|-3-3-3-3-|-3-3-3-3--|

Solo:
[ Tab from: http://www.guitartabs.cc/tabs/r/reel_big_fish/beer_tab_ver_3.html ]
e |----------------------------------------------------------------------|
b |-/10----10----10p8---8------------------------------------------------|
g |-------------------9-----9-8--7--5----------5-7b(8)--r(7)-5-----------|
d |------------------------------------7--(7)------------------7--(7)----|
a |----------------------------------------------------------------------|
E |----------------------------------------------------------------------|

e |--------------------------------------------|
b |--------------------------------------------|
g |-----------/9--9--7-5-----------------------|
d |-------7---------------7--(7)--5/7--7--7--7-|
a |--------------------------------------------|
E |--5--5-------------------------3/5--5--5--5-|

e |--------------------------17-17-17-17-17-20-20-20-20-20-22-22-22-22-22-|
b |--------------------------17-17-17-17-17-20-20-20-20-20-22-22-22-22-22-|
g |-19b(21)--19-17--------------------------------------------------------|
d |----------------19--(19)-----------------------------------------------|
a |-----------------------------------------------------------------------|
E |-----------------------------------------------------------------------|

Bridge (Clean):
Half Time Feel

e |--5--5--1--1--0----0----5--5--1--1-|
b |--5--5--1--1--1----1----5--5--1--1-|
g |--5--5--2--2--0----0----5--5--2--2-|
d |-----------------------------------|
a |-----------------------------------|
E |-----------------------------------|



Lead Guitar:

e |-----------------------|
b |-----------------------|
g |-7b--(7.5)--7p5--------|
d |-7b--(7.5)-------7--\--|
a |-----------------------|
E |-----------------------|

Bridge Cont (Clean):
Play 3 times

e |-0----0---5--5--1--1---0----0----3-X---3-X--|
b |-1----1---5--5--1--1---1----1----3-X---3-X--|
g |-0----0---5--5--2--2---0----0----4-X---3-X--|
d |--------------------------------------------|
a |--------------------------------------------|
E |--------------------------------------------|

Lead Cont:

e |----------------|
b |----------------|
g |---------5-7-5--|
d |-----5-7--------|
a |-5-7------------|
E |----------------|

maybe some day, I'll think of what to say
maybe next time I'll remember what to do,
she looks like heaven, maybe this is hell,
said she'd do it all again, she'd promise not to tell

Double time feel...

e |-5--5--1--1-------------------------|
b |-5--5--1--1-------------------------|
g |-5--5--2--2-5-5-5-5-----------------|
d |------------5-5-5-5-5-5-5-5-5-5-5-5-|
a |------------3-3-3-3-5-5-5-5-5-5-5-5-|
E |--------------------3-3-3-3-3-3-3-3-|

If I get drunk well, I'll pass out on the floor now baby
you won't bother me no more (and she said)
It's okay boy cause you know we'll be good friends and I say,
I think I'll have myself a beer.

Outtro

e |------------------------------------|
b |------------------------------------|
g |-------------------5-5-5-5----------|
d |-7-7-7-7--3-3-3-3--5-5-5-5--5-5-5-5-|
a |-7-7-7-7--3-3-3-3--3-3-3-3--5-5-5-5-|
E |-5-5-5-5--1-1-1-1-----------3-3-3-3-|

Outro Solo


e |-------------------------------10---12---12---10---------10--|
b |-10---10---10---10---/10---13----------------------13--------|
g |-------------------------------------------------------------|
d |-------------------------------------------------------------| 
a |-------------------------------------------------------------|  
E |-------------------------------------------------------------|

e |--------------------------|---------------------|----------------------|
b |-10p8---------------------|---------------------|----------------------|
g |------9-7--5--7--5-----5--|-(5)--------5-7-b(9)-|-(9)----7p5--7-(7)----|
d |--------------------7-----|--------5-7----------|------------------7-5-|
a |--------------------------|------7--------------|----------------------|
E |--------------------------|---------------------|----------------------|

e |------------------------------------------------------------------------|
b |------------------------------------------------------------------------|
g |-14-14--14--14--14--10-10--10--10--10--5-5--5--5--5--12-12--12--12--12-*|
d |--x--x---x---x---x---x--x---x---x---x--x-x--x--x--x---x--x---x---x---x-*|
a |-12-12--12--12--12---8--8---8---8---8--3-3--3--3--3--10-10--10--10--10--|
E |------------------------------------------------------------------------|

End on:

e |-5-|
b |-5-|
g |-5-|
d |-7-|
a |---|
E |---|

OK, finally that's it! Sorry for it being very long winded, but if you want to do it, do it right. Isn't that what they say?

Any questions or comments to skanking_in_unity@hotmail.com

Thank you..
Comments