Reel Big Fish - Beer Chords & Tabs

 

Beer Chords & Tabs

Reel Big Fish Chords & Tabs

Version: 2 Type: Tab 0 ratings
1 star 2 stars 3 stars 4 stars 5 stars
comments

Beer Tab

name: Matt

artist: Reel Big Fish

SongTitle: Beer

Tabs: The solos are improvised, but I put them down here the way they 
sound.  It's not that hard, there's a lot of bar chords.  Obviously, 
this is upstroke guitar.

INTRO
e|-5-5--5-5-5-1-1--1-1-1-0-0--0-0-0-3-3--3-3-3-|
B|-5-5--5-5-5-1-1--1-1-1-1-1--1-1-1-3-3--3-3-3-|
G|-5-5--5-5-5-2-2--2-2-2-0-0--0-0-0-4-4--4-4-4-|
D|-7-7--7-7-7-3-3--3-3-3-2-2--2-2-2-5-5--5-5-5-|
A|-7-7--7-7-7-3-3--3-3-3-3-3--3-3-3-5-5--5-5-5-|
E|-5-5--5-5-5-1-1--1-1-1-0-0--0-0-0-3-3--3-3-3-|

e|-5--5--5-3--/5----|-8--10-12--12--10-8--10~~-|
B|------------------|--------------------------|
G|------------------|--------------------------|
D|------------------|--------------------------|
A|------------------|--------------------------|
E|------------------|--------------------------|
[ Tab from: http://www.guitartabs.cc/tabs/r/reel_big_fish/beer_tab_ver_2.html ]
Not quite sure about this part...
e|-5h7p5----------------------------------------------------|
B|-------5----5---------------------------------------------|
G|----------5----5---3~~---3---3-5-5b7r5--5-3--5--3---------|
D|-----------------5-----5---5----------------------5--5-3--|
A|----------------------------------------------------------|
E|----------------------------------------------------------|

VERSES: SAME AS INTRO

END OF VERSES:
e|-----------|
B|-----------|
G|-5---------|
D|-5----5----|
A|-3----5----|
e|------3----|

CHORUS
e|--------------------|
B|--------------------|
G|------5-------------|
D|-3----5----5--------| REPEAT AS NEEDED
A|-3----3----5--------|
E|-1---------3--------|

AFTER CHORUS, ANOTHER SOLO AS ABOVE

VERSES AS ABOVE

CHORUS AS ABOVE

THIRD VERSE SAME CHORDS AS OTHERS, DIFFERENT RHYTHM (LISTEN TO THE 
SONG)
THIS FILL HAPPENS AFTER THE "C" CHORD
e|-----------------|
B|-----------------|
G|-5b7---r5-3------|
D|------------5----|
A|-----------------|
E|-----------------|
AND THEN THIS FILL
e|----------------|
B|----------------|
G|-----3---3-5-3--|
D|-3-5---5--------|
A|----------------|
E|----------------|

CHORUS AS ABOVE

DURING THE "WHOA"
e|---------------------|
B|---------------------|
G|-----------5---------|
D|-7----3----5----5----|
A|-7----3----3----5----|
E|-5----1---------3----|

ANOTHER IMPROVISED SOLO BASED ON THE ONE ABOVE, AND THEN END ON THE Am 
CHORD.

That's about it.  If I'm wrong, tell me.

Comments