Reel Big Fish - Beer Chords & Tabs

 

Beer Chords & Tabs

Reel Big Fish Chords & Tabs

Version: 3 Type: Bass Tab 0 ratings
1 star 2 stars 3 stars 4 stars 5 stars
comments

Beer Bass Tab

-----------------------------------------------------------------------------
                        Beer - Reel Big Fish
-----------------------------------------------------------------------------

By:Jeff Hernandez (allroy19@idt.net)


	from Joseph's Reel Big Fish Page at:
	http://www.geocities.com/SunsetStrip/Studio/3144/
==========================================================================
  *PLEASE DO NOT PUT THESE TABS ON YOUR OWN PAGE W/0 ASKING ME FIRST.*



     Harmonic intro
G|--5---------12-------------------------------------------------------------|
D|5---5----12-----12\--------------------------------------------------------|
A|---------------------------------------------------------------------------|
E|---------------------------------------------------------------------------|
     5 times                           on the 6th one play:
G|-----------------------------------|---------------------------------------|
D|----2-----------------2-5----------|----2----------------------------------|
A|0-3---3----0-3----3-5----------2-5-|0-3---3----0-3----2-2-22---------------|
E|---------1-----1-----------3-5-----|---------1-----1---------3-3/----------|


G|---------------------------------------------------------------5-77-77-54--|
D|--------------5-3----------------------------------5-3----5-77------------7|
A|----3-1---3-3-----5------2-5-----2-5-----3-1---3-3-----5-------------------|
E|1-1-----3------------3-5-----3-5-----1-1-----3-----------------------------|

     5 times                           on the 6th one play:
G|-----------------------------------|---------------------------------------|
D|----2-----------------2-5----------|----2----------------------------------|
A|0-3---3----0-3----3-5----------2-5-|0-3---3----0-3----2-2-22---------------|
E|---------1-----1-----------3-5-----|---------1-----1---------3-3/----------|
[ Tab from: http://www.guitartabs.cc/tabs/r/reel_big_fish/beer_btab_ver_3.html ]
G|---------------------------------------------------------------5-77-77-54--|
D|--------------5-3----------------------------------5-3----5-77------------7|
A|----3-1---3-3-----5------2-5-----2-5-----3-1---3-3-----5-------------------|
E|1-1-----3------------3-5-----3-5-----1-1-----3-----------------------------|
    3 times
G|-----------------------------------|-------------------------------------16-19-|
D|----2-----------------2-5----------|----2------7-10----------14-17--17-19---|
A|0-3---3----0-3----3-5----------2-5-|0-3---3--8------8--15-17----------------|
E|---------1-----1-----------3-5-----|---------------------------------------|
    slow part 
G|-------------------------0-------------------------------0----12-10------------|
D|-----2---------------0-2-------------2---------------0-2------------12-10------|
A|0--3---3----0-3----3------------0--3---3----0-3----3----------------------12-10|
E|----------1-----1----------3b-------------1-----1------------------------------|

G|---------------------------------------------------------------5-77-77-54--|
D|--------------5-3----------------------------------5-3----5-77------------7|
A|----3-1---3-3-----5------2-5-----2-5-----3-1---3-3-----5-------------------|
E|1-1-----3------------3-5-----3-5-----1-1-----3-----------------------------|
          6 times
G|-----------------------------------|---------------------------------------|
D|----2-----------------2-5----------|----2----------------------------------|
A|0-3---3----0-3----3-5----------2-5-|0-3---3----0-3----2-2-2 2--------------|
E|---------1-----1-----------3-5-----|---------1-----1----------3-3----------|
     outro
G|---------------------------------------------------------------------------|
D|--------5---5-7----7/9-7-5-7-5-------5-7-----------------------------------|
A|----5-7---7--------------------7-5-7---------------------------------------|
E|5-7--------------------------------------7b-5\-----------------------------|
Comments