Reel Big Fish - Awesome Chords & Tabs

 

Awesome Chords & Tabs

Reel Big Fish Chords & Tabs

Version: 1 Type: Tab 0 ratings
1 star 2 stars 3 stars 4 stars 5 stars
comments

Awesome Tab

   
Song- A-W-E-S-O-M-E
Band- Reel Big FIsh
Tuning- Standard
Tabbed by- David Pearce

Hey, This is off the new Reel Big Fish album 'We're not happy till You're Not Happy'
and a great song. Its not complete as it needs the verse doing and the bridge, but I
I'd try and get people started by throwing out and idea. Corrections are welcome as
its not 100% (probably about 80ish)

INTRO
e-------------------------------------------|
B-------------------------------------------|
G---9-7x-6-7------------9-7x-6-7------------|
D---9-7x-6-7------------9-7x-6-7------------|
A---7-5x-4-5------------7-5x-4-5------------|
E-0----------0-5-3-0--0----------0-5/3/5-0--|

PART A- I'm calling this part A cos I have no idea what else to call it. You can hear it 
the Intro and in the Verse
e-----------|
B-----------|
G-9-6-4-6-7-|  < Listen for the rhythem
D-9-6-4-6-7-|
A-7-4-2-4-5-|
E-----------|

PRE-CHORUS
e-----------|
B-----------|
G---4-------|
D-4-4-4-7-9-|
A-4-2-4-7-9-|
E-2---2-5-7-|
[ Tab from: http://www.guitartabs.cc/tabs/r/reel_big_fish/awesome_tab.html ]
CHORUS
e-------------------------------------------------------------|
B-------------------------------------------------------------|
G-9-----------------------------------------------------------|
D-9-----------6-7---------9/--4-----------------7-------9-----|
A-7-----------6-7---------9/--4-----------------7-------9-----|
E-------------4-5---------7/--2-----------------5-------7-----|
 You're awsome, So awesome, you're everything I want in a girl

e------------------------------------------------------------------|
B------------------------------------------------------------------|
G-9----------------------------------------------------------------|
D-9------------6-7------9/-----4----------------7----------9-------|
A-7------------6-7------9/-----4----------------7----------9-------|
E--------------4-5------7/-----2----------------5----------7-------|
   You're Crazy, Amazing, I'm everything thats wrong with the world

e---------------------------------------------------------------|
B---------------------------------------------------------------|
G-9----------6-----------------------5-------4-----------7------|
D-9----------6-----------------------5-------4-----------7------|
A-7----------4-----------------------3-------2-----------5------|
E---------------------------------------------------------------|
 Your great,You're filled with hate, uhhuh, And I can't escape

The order aint too hard to figure out, just listen to the song and have fun

Cheers
David
Comments