Reel Big Fish - Alternative Baby Chords & Tabs

 

Alternative Baby Chords & Tabs

Reel Big Fish Chords & Tabs

Version: 1 Type: Bass Tab 0 ratings
1 star 2 stars 3 stars 4 stars 5 stars
comments

Alternative Baby Bass Tab

   Intro       p     x3
G---------------6-------|----------------|
D-----------------------|----------------|
A---6---3-3---4---------|-6---3-3--------|
E-------------------4-6-|-----------4----|


    Pre-Verse
G-------------------------------------------------------------------|
D---8-6-5----------------6---------8-6-5---------------6-----6-7-8--|
A-6-------6-------6--6-6---------6-------6------6--6-6-----6--------|
E-------------4-6-----------4-6-------------4-6---------------------|


    Verse
G--------------------------------------------|
D-----5-8-10-----10--------------------------|
A---6-----------------------6----------------|
E------------8-8----8---4-----4---6---3-4-6--|

[ Tab from: http://www.guitartabs.cc/tabs/r/reel_big_fish/alternative_baby_btab.html ]
    Pre-Chorus
G---------------------------------------------------------------------|
D-----10-8--------8-6---------8---------------------------------------|
A---8------10--------8---6-6---6-----10---------------------8-6-------|
E---------------6-------------------8----8---4-4--4-4--6-6-----8------|


    Chorus
G--------------------------5-3-------------------3-------------------|
D----------5-3-5---------------5------------5-5----------------------|
A-------6---------------6-----------------6--------------------------|
E-4-4-6-----------4-4-6-------------4-4-6----------4-4-4-4-6-6-6-6---|


Repeat Pre-Verse
       Verse
       Pre-Chorus
       Chorus
       Intro

Play Pre-Verse riff during solo
Repeat Pre-Chorus
       Chorus
       Intro

    End with
G----------------------|
D-------5-6-5------8---|
A---6-8-------8--------|
E----------------------|
Comments