Reel Big Fish - All I Want Is More Chords & Tabs

 

All I Want Is More Chords & Tabs

Reel Big Fish Chords & Tabs

Version: 1 Type: Bass Tab 0 ratings
1 star 2 stars 3 stars 4 stars 5 stars
comments

All I Want Is More Bass Tab

Song:All I Want is More
Band:Reel Big Fish
Album:Turn the Radio Off
tabbed by:Dave (Squally182@aol.com)



Intro/outro 1x
G:|-----------------------------|
D:|7h9-7--7h9-7--7h9-7-------7--|
A:|--------------------9-7h9---9|
E:|-----------------------------|

(when horns come in)4x
G:|-------------------|
D:|-------------------|
A:|0-0-4-4-5-5--------|
E:|------------2-2-3-3|

(when distortioned guitar starts) 
chorus also (Someday, maybe...)     2x  
G:|-------------------------------------|
D:|-------------------------------------|
A:|0-0-4-4-5-5-----0-0-4-4-5-4-0-5-4-0--|
E:|------------2-3---------------------0|

pre-verse 1x
G:|9h11-9----9999-7-6-7----9999-7-6-7---9999-7-6-7777-6-7|
D:|-------11-----------7/------------7/------------------|
A:|------------------------------------------------------|
E:|------------------------------------------------------|
[ Tab from: http://www.guitartabs.cc/tabs/r/reel_big_fish/all_i_want_is_more_btab.html ]
Verse 4x
G:|-------------------|
D:|-------------------|
A:|0000-----------5555|
E:|-----0000-2222-----|

little bass solo
G:|-----------------------------------------------------|
D:|--7-6h7-6-7-6---7-4h5-4-5-4---9-6h7-6-7-6------------|
A:|7-------------5-------------7-------------5-4-0-5-4-0|
E:|-----------------------------------------------------|


during guitar solo, do "verse" 2x and then this:

G:|-----------------------------------------------------|
D:|------------7-9-----11-----7-------------9-----11----|
A:|0-0-0-0-7-9-----9-9----5-5---0-0-0-0-7-7---9-9----5-5|
E:|-----------------------------------------------------|

order:
intro
(when horns come in)
(distorion guitar part)
pre-verse
verse
chorus
pre-verse
verse
little bass solo
verse *only twice though*
guitar solo part
chorus
"(when horns come in)"
pre-verse
outro
fade out with "(when horns come in)"
Comments