Reel Big Fish - 241 Chords & Tabs

 

241 Chords & Tabs

Reel Big Fish Chords & Tabs

Version: 1 Type: Bass Tab 0 ratings
1 star 2 stars 3 stars 4 stars 5 stars
comments

241 Bass Tab

-----------------------------------------------------------------------------
                            241 - Reel Big Fish
-----------------------------------------------------------------------------

By:Jeff Hernandez (allroy19@idt.net)

	from Joseph's Reel Big Fish Page at:
	http://www.geocities.com/SunsetStrip/Studio/3144/
==========================================================================
  *PLEASE DO NOT PUT THESE TABS ON YOUR OWN PAGE W/0 ASKING ME FIRST.*


G|----------------------------------------------------11----12-12-----|
D|------------------7----7/9-9-7---------9---------11----11-12-12-----|
A|-----5--------5-5---5----------9--7-77---7-7-7-9--------------------|
E|7-77---7---7--------------------------------------------------------|

G|---------------------------------------------------------------------9|
D|------------------7----7/9-9-7---------9-----------8-11-8--11-8/9-11|
A|-----5--------5-5---5----------9--7-77---7-7-7-9-9------------------|
E|7-77---7---7--------------------------------------------------------|
     play this riff twice
G|--------------------------------------------------------------------|
D|------------------7-------------9-----------------------------------|
A|-----5-------5-55---5-5-5--7-77---7-7-7--9-9-7-7-5-5-4-4------------|
E|7-77---7-7-7--------------------------------------------------------|
    then, play this during trumpet solo
G|--------------------------------------------------------------------|
D|--9-7------9--------------------------------------9-7------9--------|
A|7-----9--7---7-9------9--------11--------9------7-----9--7---7-9----|
E|------------------7-7---7--8-8----8--7-7---7------------------------|
    continued
G|--------------------------------------------------------------------|
D|-------------------------------------12-12--------------------------|
A|----9--------10-----10--------12--12-------12--12-00----33--00------|
E|7-7---7--7-8----8-8-----10-10---------------------------------------|

G|-------------------------------------------------11----12----13-----|
D|------------------7----7/9-9-7---------9----------------------------|
A|-----5--------5-5---5----------9--7-77---7-7-7-9----10----11----12\-|
E|7-77---7---7--------------------------------------------------------|
[ Tab from: http://www.guitartabs.cc/tabs/r/reel_big_fish/241_btab.html ]
G|----------------------------------------------------11--------------|
D|------------------7----7/9-9-7---------9---------11----11-----------|
A|-----5--------5-5---5----------9--7-77---7-7-7-9----------9---------|
E|7-77---7---7--------------------------------------------------------|
     play this riff twice
G|--------------------------------------------------------------------|
D|------------------7-------------9-----------------------------------|
A|-----5-------5-55---5-5-5--7-77---7-7-7--9-9-7-7-5-5-4-4------------|
E|7-77---7-7-7--------------------------------------------------------|
    then, play this during trombone solo
G|--------------------------------------------------------------------|
D|--9-7------9--------------------------------------9-7------9--------|
A|7-----9--7---7-9------9--------11--------9------7-----9--7---7-9----|
E|------------------7-7---7--8-8----8--7-7---7------------------------|
    continued
G|--------------------------------------------------------------------|
D|----------------10-----------12-------------------------------------|
A|----9--------10----10-----12----12----00----33----00----------------|
E|7-7---7--7-8-----------10-------------------------------------------|
  
G|----------------------------------------------------12-11-----------|
D|------------------7----7/9-9-7---------9---------11-------11--------|
A|-----5--------5-5---5----------9--7-77---7-7-7-9--------------------|
E|7-77---7---7--------------------------------------------------------|

G|----------------------------------------------------11--------------|
D|------------------7----7/9-9-7---------9---------11----11---11------|
A|-----5--------5-5---5----------9--7-77---7-7-7-9----------9----9----|
E|7-77---7---7--------------------------------------------------------|
   play this riff 3 times
G|--------------------------------------------------------------------|
D|------------------7-------------9-----------------------------------|
A|-----5-------5-55---5-5-5--7-77---7-7-7--9-9-7-7-5-5-4-4------------|
E|7-77---7-7-7--------------------------------------------------------|
     than at the last one play the octaves
G|-------------------------------------------11---9----7---6----------|
D|------------------7-------------9-----------------------------------|
A|-----5-------5-55---5-5-5--7-77---7-7-7--9----7----5---4------------|
E|7-77---7-7-7------------------------------------------------77------|
     ending riff
G|---------------------------------7---7-9-/11-11-11--9-7-9-7---------|
D|-------------------------7---7-9---9------------------------9-7-9---|
A|/9-7-----------------7-9---9----------------------------------------|
E|-----10-9-7-----7-10----------------------------------------------7\| 

Comments