Reef - Place Your Hands Chords & Tabs

 

Place Your Hands Chords & Tabs

Reef Chords & Tabs

Version: 4 Type: Tab 0 ratings
1 star 2 stars 3 stars 4 stars 5 stars
comments

Place Your Hands Tab

   
Reef - place your hands

great song great band listen to other tracks

and the 6th string in drop D

h = hammer on
x = muting strings with left hand
D = strumming down   (Down)
U = strumming up     (Up)
pm = palm mute
LR = let ring
                       x8     riff 1
e---------------------------------------------------------------------------
B----------7------x--x--x------7h8----7--8----------------------------------
G----------7------x--x--x------7------7--7----------------------------------
D----------7------x--x--x------7h9----7--9----------------------------------
A---------------------------------------------------------------------------
D---0-----------------------------------------------------------------------


             x1   riff 2
e--10---10---10-|--x--x--x--x--x--x--- 
B--12---12---12-|--x--x--x--x--x--x---
G--12---12---12-|--x--x--x--x--x--x---
D--12---12---12-|--x--x--x--x--x--x---
A--10---10---10-|--x--x--x--x--x--x---
D---------------|---------------------
    D    U    D   D  D  D  D  D  D
[ Tab from: http://www.guitartabs.cc/tabs/r/reef/place_your_hands_tab_ver_4.html ]
e--10---10---10---------------------------------------------------
B--12---12---12---------------------------------------------------
G--12---12---12-----------7--7------------7--7--------------------
D--12---12---12----7h9-------------7h9-----------9\---------------
A--10---10---10---------------------------------------------------
D-----------------------------------------------------------------

 then play riff 1 here twice

 Pm~~~~~~~~~~~~~~~~~~~~~~~~~~~~~~~~~~~~
e------------------------------------------
B------------------------------------------
G------------------------------------------
D----2---------------5---------------------
A----2---------------5---------------------
D----2---------------5---------------------
    LR               LR
    
there is a twidly bit in here somewhere u have to work that out, fuck it im lazy


thats it ok after you play riff 1 its just that it slides somewhere, i dont really know
well thats all hope u liked it, NOTE on the first bit it might not sound right to start
with but keep on at it dont hit the bass note so hard and it should come together.

peace out
Comments