Reef - Place Your Hands Chords & Tabs

 

Place Your Hands Chords & Tabs

Reef Chords & Tabs

Version: 1 Type: Tab 1 rating
1 star 2 stars 3 stars 4 stars 5 stars
comments

Place Your Hands Tab

   
Subject: Reef – Place Your Hands
From: John Aitken     
Mail: JHAAitken@aol.com


De-tune E to D


INTRO:
e:---7-7--------------7-7---------------7-7--------------7-7---------------| 
B:---7-7-x-7h8-7h8----7-7-x-7h8-7h8-----7-7-x-7h8-7h8----7-7-x-7h7-7h8-----|
G:---7-7-x-7-7-7------7-7-x-7-7-7-------7-7-x-7---7------7-7-x-7-7-7-7-----|
D:---7-7-x-7h9-7h9----7-7-x-7h9-7h9-----7-7-x-7h9-7h9----7-7-x-7h9-7h9-----|
A:---5-5--------------5-5---------------5-5--------------5-5---------------|
D:-0----------------0-----------------0----------------0-------------------|


VERSE: “Oh place your hands”
e:---7-7--------------7-7---------------7-7--------------7-7---------------| 
B:---7-7-x-7h8-7h8----7-7-x-7h8-7h8-----7-7-x-7h8-7h8----7-7-x-7h7-7h8-----|
G:---7-7-x-7-7-7------7-7-x-7-7-7-------7-7-x-7---7------7-7-x-7-7-7-7-----|
D:---7-7-x-7h9-7h9----7-7-x-7h9-7h9-----7-7-x-7h9-7h9----7-7-x-7h9-7h9-----|
A:---5-5--------------5-5---------------5-5--------------5-5---------------|
D:-0----------------0-----------------0----------------0-------------------|

[ Tab from: http://www.guitartabs.cc/tabs/r/reef/place_your_hands_tab.html ]
“Run your fingers through my soul”
e:-----------x-x-x-x-x-----------------------------------7-7---------------| 
B:--12-12-12-x-x-x-x-x-12-12-12--------------------------7-7-x-7h8-7h8-----|
G:--12-12-12-x-x-x-x-x-12-12-12--------------------------7-7-x-7---7-7-----|
D:--12-12-12-x-x-x-x-x-12-12-12------12----12----12/-----7-7-x-7h9-7h9-----|
A:-----------x-x-x-x-x----------12h14—12h14—12h14--/-----5-5---------------|
D:-----------x-x-x-x-x---------------------------------0-------------------|


VARIATION ON VERSE:
e:-------------------------------------------------------------------------| 
B:---7--------8------7--------8--------------------------------------------|
G:-----7--------7------7--------7------------------------------------------|
D:-----7--7\9----------7—-7\9----------------------------------------------|
A:--------5\7-------------5\7----------------------------------------------|
D:-0---------------0-------------------------------------------------------|


BRIDGE:
e:-------------------------------------------------------------------------| 
B:-------------------------------------------------------------------------|
G:---------7-7-7-7h9p7----------7-7-7-7-7-7---------7-7-7-7h9--------------|
D:-----7-7---7---7----9-----7-7---7---7-7-------7-7---7---7--9-------------|
A:-7h9-9-9--------------7h9-9-9-------------7h9-9-9------------------------|
D:-0--------------------0-------------------0------------------------------|
							 Repeat..

JOIN BACK INTO VERSE:
e:-------------------------------------------------------------------------| 
B:-------------------------------------------------------------------------|
G:------------------------------------------5------------------------------|
D:---------------------------3---3-5-3-55\7---7-5/3p0----------------------|
A:-0h3h5-555-5-3h5-555-5-3-5---5----------------------5--------------------|
D:-------------------------------------------------------------------------|

Repeat Intro to finish the song. Alright Now

Comments