Reef - All I Want Chords & Tabs

 

All I Want Chords & Tabs

Reef Chords & Tabs

Version: 4 Type: Tab 0 ratings
1 star 2 stars 3 stars 4 stars 5 stars
comments

All I Want Tab

   
Song : All I Want
Band : Reef
Tabbed By : Diamond Jerry (Raptureboy182@yahoo.com)

Standard Tuning

Nice song...hope you guys will enjoy it!!!


[Intro] (Riff1)
e|---------------------------------------------------------------------------|
B|--1--h3---/5--3--1-------------1-------------------------------------------|
G|--0---0~------------2-0~-----0--------0--------0---------------------------|
D|---------------------------3--------2---2----2---2-----2-------then--------|
A|----------------------------------3--------3--------3----------------------|
E|---------------------------------------------------------------------------|

(Riff2)
e|---------------------------------------------------------------------------|
B|--1--h3---/5--3--1-------------1-------------------------------------------|
G|--0---0~------------2-0~-----2-----------0--------0--------0---------------|
D|---------------------------3-------2~------2----2---2----2---2-------------|
A|---------------------------------------3------3--------3-------------------|
E|---------------------------------------------------------------------------|


[Verse]  
e|---------------------------------------------------------------------------|
B|---------------------------------------------------------------------------|
G|---2~--0~----0--------0-------0---------------------2~--0~-----0-----------|
D|---3~--2~---2--2----2--2----2---2-----(7x)---then---3~--2~---2---2---------|
A|---3~--3~---------3-------3-------------------------3~--3~-----------------|
E|---------------------------------------------------------------------------|

[ Tab from: http://www.guitartabs.cc/tabs/r/reef/all_i_want_tab_ver_4.html ]
[Pre-Chorus]  F - G  (4x)
e|----1-1-1-1-------3-3-3-3--------------------------------------------------|
B|----1-1-1-1-------3-3-3-3--------------------------------------------------|
G|----2-2-2-2-------0-0-0-0--------------------------------------------------|
D|----3-3-3-3-------0-0-0-0------(4x)----------------------------------------|
A|----3-3-3-3-------2-2-2-2--------------------------------------------------|
E|------------------3-3-3-3--------------------------------------------------|


[Chorus] C - G - Dm - Am - Em - G  (2x)
e|---0----3----1----0----0----3----------------------------------------------|
B|---1----3----3----1----0----2----------------------------------------------|
G|---0----0----2----2----0----0----------------------------------------------|
D|---2----0----0----2----2----0------(2x)------------------------------------|
A|---3----2----0----0----2----2----------------------------------------------|
E|---0----3----0----0----0----3----------------------------------------------|


(repeat riff1)
(repeat verse)
(repeat Pre-Chorus) start with G then  F - G  (4x)
(repeat Chorus)

[Bridge] Bb - A - Dm - C - G,    C - G - Am - G - F...G
e|---1---0---1---0---3----|----0---3---0---3---1----3------------------------|
B|---1---2---3---1---3----|----1---3---1---3---1----3------------------------|
G|---3---2---2---0---0----|----0---0---2---0---2----0------------------------|
D|---3---2---0---2---0----|----2---0---2---0---3----0------------------------|
A|---1---0---0---3---2----|----3---2---0---2---3----2------------------------|
E|-------0---0---0---3----|----0---3---0---3--------3------------------------|

(repeat Chorus 2x)


[Outro]
e|---------------------------------------------------------------------------|
B|--1--h3---/5--3--1-------------1-------------------------------------------|
G|--0---0~------------2-0~-----0----0~---------------------------------------|
D|---------------------------3------2~---------------------------------------|
A|----------------------------------3~---------------------------------------|
E|---------------------------------------------------------------------------|


Any comments or corrections,just mail me to Raptureboy182@yahoo.com/ICQ #115343571
Comments