Reef - All I Want Chords & Tabs

 

All I Want Chords & Tabs

Reef Chords & Tabs

Version: 1 Type: Tab 0 ratings
1 star 2 stars 3 stars 4 stars 5 stars
comments

All I Want Tab

   
ARTIST: REEF
SONG: ALL I WANT
TABBED BY PAUL MCCARTHY

INTRO     C                F                                                 C
E------------------------------------------------------------------------------------------------|
A-----------------------------------3...........--------------3--------------3-------------------|     x2
D---------------------------3--------------------2------2-------2-------2-------2----------------|
G---0.................---------2--------------------0----------------0---------------0-----------|
B---1--3/5-3-1--3p1--------------1---------------------------------------------------------------|
e -----------------------------------------------------------------------------------------------|

[ Tab from: http://www.guitartabs.cc/tabs/r/reef/all_i_want_tab.html ]
VERSE
   C                                       F         C
e------------------------------------------1-----------------------------------|
A--3----------------3--------------3-------3---------3-------------------------|
D-------2-------2------2------2------------3---------2-------------------------|
G-----------0--------------0---------------2---------0-------------------------|
B------------------------------------------1---------1-------------------------|
E------------------------------------------1---------0-------------------------|

REPEAT THIS THROUGHOUT VERSE

BRIDGE:

Fmaj7 -  (033210)      G - (320022)
I WAS ALL ALONE        LIKE A FATHER WITH NO SON

CHORUS:

C - (*32010)     G                     Dm - (***231)  Am - (*02210)
ALL I WANT TO    DO IS MAKE IT         OVER           YOU

Em - (022000)  G
I WANT TO
(EADGBe)
(* = DON'T PLAY THIS STRING)
Comments